» » »

I Want You Back Tabs (ver.1)

Artists:  A B C D E F G H I J K L M N O P Q R S T U V W X Y Z # 

I Want You Back Tabs (ver.1)

Jackson 5
Rating:
3/5 (3 votes)

Hard to play? Try these video lessons and learn fast.
                |--------------------------------------------------------|
|-10--1010--10--101010-10101010101010---1010--101010-----|
|--------------------------------------------------------|
|-7---7-7---7---7-7-7---7-7-7-7-7-7-7---7-7---7-7-7--etc-|
|--------------------------------------------------------|
|--------------------------------------------------------|
riff                            horns     
|-9---9-x--9\7-7-7\5-5-5-5-----|-------------------19-17-----|
|-10-10-x-10\9-9-9\7-7-7-7-----|-17-19-22-22-22-22-----------|
|------------------------------|-------------------16-14-----|
|------------------------------|-14-16-19-19-19-19-----------|
|------------------------------|-----------------------------|
|------------------------------|-----------------------------|

|------------------------------------------------------------|
|----------22-22-22-22-19-22-19-------19-22-22-19-22---------|
|------------------------------------------------------------|
|-------16-19-19-19-19-16-19-16-------16-19-19-16-19---------|
|-16-19-------------------------16-19------------------------|
|------------------------------------------------------------|
CHORUS
|-5--5-4--4-2-2--0--0-0-0------------------------------------|
|-5--5-5--5-2-2--0--0-0-0--7----7----3-3-9--9-9-9------------|
|-6--6-4--4-2-2--1--1-1-1--7----7----4-4-9--9-9-9------------|
|-7--7-6--6-4-4--2--2-2-2--7----7----4-4-9--9-9-9------------|
|-0------------------------5--5-4--4-2-2-7--7-7-7------------|
|------------------------------------------------------------|

|-2--5--5-5-5--2--2--5--|------5-----5-----then last chord(A)-|
|-2--5--7-7-5--3--3--5--|------7-----3-----8------------------|
|-2--6--7-7-6--2--2--6--|------7-----2-----9------------------|
|-4--x--7-7-7--4--2--7--|------x-----2-----12harm-------------|
|-4--4--5-5-7--2-----7--|---or-7--0r----or-12harm-------------|
|-2---------5--------5--|------------------12harm-------------|
Verse 2
|-5/-9--9--9--9-x-x---9--12--9--10---19/21-21-21-x-x-21--17--17-x-x-x-17-17-1717-17-|
|-7/10-10-10-10-x-x---10-----10-----------------------------------------------------|
|-------------------------------7----16/18-18-18-x-x-18--14--14-x-x-x-14-14-1414-14-|
|-------------------11--------------------------------------------------------------|
|-----------------------------------------------------------------------------------|
|-----------------------------------------------------------------------------------|

|-5/7/-9--9--9--9------9-12-9---------------------------------------2--5-------|
|-5/9/10-10-10-10---10--------12-x-10-10-10-x-x-7--10--9--7--5---3--3--5-------|
|-----------------9----------------------------------------------2--2--6-------|
|--------------------------------x--7--7--7-x-x-4---7--6--4--2---4--2--7-------|
|----------------------------------------------------------------2-----7-------|
|----------------------------------------------------------------------5-------|
Bridge A
|-9h1212p9-------------------|
|(10)------9-9-x-x-10-10-10--|
|(9)-------9-9-x-x-11-11--9--|
|----------9-9-x-x-12-12-11--|
|----------------------------|
|----------------------------|
Bridge B
|-9h1212p9-------------------|
|(10)------9-9-x-x-10-10-----|
|(9)-------9-9-x-x-11-11--9--|
|----------9-9-x-x-12-12-11--|
|----------------------------|
|----------------------------|
in this order  A,B,B,A,B,B
Play chorus 3x and just before last chord(A) play below riff
|----------------------------|
|-17-17-19-17--19-19-17-19---|
|----------------------------| play twice each time
|-14-14-16-14--16-16-14-16---|
|----------------------------|
|----------------------------|
            
Hard to play? Try these video lessons and learn fast. | Correct




comments powered by Disqus
↑ Back to top | Tablatures and chords are parodies/interpretations of the original songs. You may use it for private study, scholarship, research or language learning purposes only