>
 >
Here Comes Hollow 1

Here Comes Hollow 1 Guitar Tabs

Jackson - Here Comes Hollow 1 chords, tabs, tablatures, lyrics

Guitar lessons | Add/correct | Request | Top 50 tabs Artists:  A B C D E F G H I J K L M N O P Q R S T U V W X Y Z 0-9

Here Comes Hollow 1 Guitar Tabs – Jackson

CD, Sheet music, Poster

Do you like Here Comes Hollow 1? Share with your friends now
TabsTabs v2
Tuning : Normal

--------------------------

Note:tabbed from low quality Jackson Audio Player
     (they don't have the EP down here in Europe yet)

***INTRO***

part1(with...Flanger and/or delay???eh!)
e-----------------------------------
B-----------------------------------
G-14--10----------------------------
D---------14--12--------------------
A-----------------------------------
E-----------------------------------

part2 (w/ disto')
e---------------------------------------------
B---------------------------------------------
G-----7-7-7-7-7-7-9-9-10-10-10-10-10-10-10-10-
D-----x-x-x-x-x-x-x-x--x--x--x--x--x--x--x--x-
A-----5-5-5-5-5-5-7-7--8--8--8--8--8--8--8--8-
E-15\-----------------------------------------
                                                 X2
e---------------------------------------------
B---------------------------------------------
G-----14-14-14-14-12-12-10-10-9-9-9-9-7-7-9-9-
D------x--x--x--x--x--x--x--x-x-x-x-x-x-x-x-x-
A-----12-12-12-12-10-10--8--8-7-7-7-7-5-5-7-7-
E---------------------------------------------

part3 (guitar 1,lil' modified)
e---------------------------------------------
B---------------------------------------------
G-----7-7-7-7-7-7-9-9-10-10-10-10-10-10-10-10-
D-----x-x-x-x-x-x-x-x--x--x--x--x--x--x--x--x-
A-----5-5-5-5-5-5-7-7--8--8--8--8--8--8--8--8-
E---------------------------------------------
                                                 X2
e---------------------------------------------
B---------------------------------------------
G-----14\12-12-12-12-12-10-10-9-9-9-9-7-7-9-9-
D------x\-x--x--x--x--x--x--x-x-x-x-x-x-x-x-x-
A-----12\10-10-10-10-10--8--8-7-7-7-7-5-5-7-7-
E---------------------------------------------
part3 (guitar 2)
e--------------------------------------------------
B--10-10-10-10-10-10-10-10-10-10-10-10-10-10-10-10-
G---x--x--x--x--x--x--x--x--x--x--x--x--x--x--x--x-
D---7--7--7--7--7--7--7--7--7--7--7--7--7--7--7--7-
A--------------------------------------------------
E--------------------------------------------------
                                                    X2
e--------------------------------------------------
B--10-10-10-10-10-10-10-10-------------------------
G---x--x--x--x--x--x--x--x-12-12-12-12-12-12-12-12-
D---7--7--7--7--7--7--7--7--x--x--x--x--x--x--x--x-
A--------------------------10-10-10-10-10-10-10-10-
E--------------------------------------------------

part4 (guitar 1)
e------------------------------------------------------
B------------------------------------------------------
G-------------------------------------------------5----
D-7--7-7--5--5-5--7--7-7--5--5-5--7--7-7--5--5-5--5--3-
A-7--7-7--5--5-5--7--7-7--5--5-5--7--7-7--5--5-5--3--3-
E-5--5-5--3--3-3--5--5-5--3--3-3--5--5-5--3--3-3-----1-

part4 (guitar 2 w/flanger and/or delay)
e------------------------------------------------------
B------------------------------------------------------
G----0~--------------0~--------------0~----------------
D------------------------------------------------------
A------------------------------------------------------
E------------------------------------------------------

***Verse 1***
(palm muted/clean/slight disto' whatever...can't hear it right)
e---------------------------------------------------------
B---------------------------------------------------------
G-----------------7-7-7-7-7-7-7-7-10-10-10-10-10-10-10-10-
D-7-7-7-7-7-7-7-7-7-7-7-7-7-7-7-7-10-10-10-10-10-10-10-10-
A-7-7-7-7-7-7-7-7-5-5-5-5-5-5-5-5--8--8--8--8--8--8--8--8-
E-5-5-5-5-5-5-5-5-----------------------------------------

e----------------------
B----------------------
G----------------------
D-10-10-10-10-9-9-9-9--
A-10-10-10-10-9-9-9-9--
E--8--8--8--8-7-7-7-7--

***Chorus***
(I'm not sure of the first chord,
 it may be just a normal F power chord...anyway) 
e-----------------------------------------------------
B-----------------------------------------------------
G-10--10-10-10-10-10-10-5--5-5-5-5-5-5-9--9-9-9-9-9-9-
D-10--10-10-10-10-10-10-5--5-5-5-5-5-5-9--9-9-9-9-9-9-
A--8---8--8--8--8--8--8-3--3-3-3-3-3-3-7--7-7-7-7-7-7-
E-----------------------------------------------------

e----------------------
B----------------------
G----------------------
D--7--7-7---5--5-5-----  X4
A--7--7-7---5--5-5-----
E--5--5-5---3--3-3-----

(guitar 2 comes in)
e-------------------------------------------------
B-------------------------------------------------
G-5-5-5-5-5-5-5-5-5-5-5-5-5-5-5-5-4-4-4-4-4-4-4-4-
D-x-x-x-x-x-x-x-x-x-x-x-x-x-x-x-x-x-x-x-x-x-x-x-x-
A-3-3-3-3-3-3-3-3-3-3-3-3-3-3-3-3-2-2-2-2-2-2-2-2-
E-------------------------------------------------

e----------------------
B----------------------
G-5-5-5-5-7---9--------
D-x-x-x-x-x---x--------
A-3-3-3-3-5---7--------
E----------------------

e-------------------------------------------------
B-------------------------------------------------
G-5-5-5-5-5-5-5-5-5-5-5-5-5-5-5-5-4-4-4-4-4-4-4-4-
D-x-x-x-x-x-x-x-x-x-x-x-x-x-x-x-x-x-x-x-x-x-x-x-x-
A-3-3-3-3-3-3-3-3-3-3-3-3-3-3-3-3-2-2-2-2-2-2-2-2-
E-------------------------------------------------

e------------------------
B------------------------
G-5-5-5-5-10--9----------
D-x-x-x-x--x--x----------
A-3-3-3-3--8--7----------
E------------------------

***Verse 2***
(almost same as the 1st,except gtr 2 comes in with this)
w/flanger and/or delay
e----------------------------------------------
B----------------------------------------------
G---------------10----------14---------10----9-
D-----7-------------10----------14-------------
A--------7--(8)--------(12)---------(8)---(7)--
E-(5)------------------------------------------

***Interlude***
w/flanger and/or delay
e-------------------------------------------------
B-------------------------------------------------
G------0~------------0~--------0~-------0~----0~--
D--------0~--------0~--(0)-------0~---------------
A----------(0)3--3--------------------------------
E-1--1--------------------3--3-----(0)5---5-3---3-
other gtr palm muted 
e---------------------------------------------------
B---------------------------------------------------
G---------------5--5-5--5-5-5-----------------------
D-3--3-3--3-3-3-5--5-5--5-5-5-5--5-5--5-5-5-7~---5~-
A-3--3-3--3-3-3-3--3-3--3-3-3-5--5-5--5-5-5-7~---5~-
E-1--1-1--1-1-1---------------3--3-3--3-3-3-5~---3~-

interlude ends with an F floats into chorus blablabla...

***outro***
(guitar 1)
e------------------------------------------------------------
B------------------------------------------------------------
G-------------------------------------------------5----------
D-7--7-7--5--5-5--7--7-7--5--5-5--7--7-7--5--5-5--5--3~------
A-7--7-7--5--5-5--7--7-7--5--5-5--7--7-7--5--5-5--3--3~------
E-5--5-5--3--3-3--5--5-5--3--3-3--5--5-5--3--3-3-----1~--/8~-

(guitar 2 w/flanger and/or delay)
e------------------------------------------------------
B------------------------------------------------------
G----0~--------------0~--------------0~----------------
D------------------------------------------------------
A------------------------------------------------------
E------------------------------------------------------

end!

keys,

h=hammer on
p=pull off
()=ghost note
/=slide up
\=slide down
~=let ring

Have fun!





Comments


Popular Jackson tabs & chords
All The Way 1 Bass Tabs
All The Way Tabs
Blinders Tabs
Far From Here Tabs
Fell Into Tabs
Here Comes Hollow Tabs
Shes Giving In Tabs


Song lyrics



↑ Back to top | Tablatures and chords are parodies/interpretations of the original songs. You may use it for private study, scholarship, research or language learning purposes only
© 2014 AZChords.com Contact us | Privacy policy | DMCA | Add/correct tabs | Request tabs | Top 50 tabs