» » »

The Resolution Bass tabs (ver.1)

Artists:  A B C D E F G H I J K L M N O P Q R S T U V W X Y Z # 

The Resolution Bass tabs (ver.1)

Jacks Mannequin
Rating:
0/5 (0 votes)

Hard to play? Try these video lessons and learn fast.
                no bass in intro

pre-chorus: "and you hold me down.."
G----------------------------------------------------------------------|
A----------------------------------------------------------------------|
D----------------------------------------------------------------------|
E----00000-6-666----33333-3-333/6--------------------------------------|(X2)

chorus: "yeah I'm alive.."
G----------------------------------------------------------------------|
A----------------------------------------------------------------------|
D----------------------333333-------------------------333333-----------|
E----000---666666-333------------000---666666-333----------------------|(X2)

G----------------------------------------------------------------------|
A----------------------------------------------------------------------|
D----------------------------------------------------------------------|
E----00000-6-666----33333-3-333/6--------------------------------------|(X2)

verse: "and the bars are finally so I try living in the moment..."
G----------------------------------------------------------------------|
A----------------------------------------------------------------------|
D----------------------------------------------------------------------|
E----00000-6-666----33333-3-333----------------------------------------|

G----------------------------------------------------------------------|
A----------------------------------------------------------------------|
D----------------------------------------------------------------------|
E----00000-6-666----33333-3-----6/10-----6/10--------------------------|(X1)


chorus: "yeah I'm alive.."
G----------------------------------------------------------------------|
A----------------------------------------------------------------------|
D----------------------333333-------------------------333333-----------|
E----000---666666-333------------000---666666-333----------------------|(X5)

"and you hold me down..."
G----------------------------------------------------------------------|
A----------------------------------------------------------------------|
D----------------------------------------------------------------------|
E----00000-6-666----33333-3-333/6--------------------------------------|(X3)

bridge: "I'm alive and I don't need a witness..."
G----------------------------------------------------------------------|
A----------------------------------------------------------------------|
D----------------------------------------------------------------------|
E--0-0-0-0-0-0-0-0-0-0-0-0-0-------------------------------------------|

chorus: "yeah I'm alive.."
G----------------------------------------------------------------------|
A----------------------------------------------------------------------|
D----------------------333333-------------------------333333-----------|
E----000---666666-333------------000---666666-333----------------------|(X6)

G-----------------------------------------------------------------------|
A-----------------------------------------------------------------------|
D----------------------333333-------------------------333333------------|
E----000---666666-333------------000---666666-333-----------------0~----|
            
Hard to play? Try these video lessons and learn fast. | Correct




comments powered by Disqus
↑ Back to top | Tablatures and chords are parodies/interpretations of the original songs. You may use it for private study, scholarship, research or language learning purposes only