» » »

Jacks Mannequin, The Resolution Tabs (ver.1)

Artists:  A B C D E F G H I J K L M N O P Q R S T U V W X Y Z # 

The Resolution Tabs (ver.1)

Jacks Mannequin Tabs
 Rating:
4/5 (4 votes)
The Resolution lessons Tabs too difficult? Try these video lessons and learn fast
                Intro (Strum Once)x2
e------------------|
a------------------|
D------------------|
G--5-----9----7----|
B--5-----9----7----|
E--3-----7----5----|

Verse'0:13.. x2
e--------------------------|
a--------------------------|
D--------------------------|
G--5 x6----9 x1-----7 x7---|
B--5 ------9--------7------|
E--3-------7--------5------|

Chorus x3
e------------------------------|
a------------------------------|
d-----------7 x4---------9 x4--|
G--5 x4-----7-----9 x4---9-----|
B--5--------5-----9------7-----|
E--3--------------7------------|

Bridge
e-------------------|
a-------------------|
D-------------------|
G--5-----9----7-----|
B--5-----9----7-----|
E--3-----7----5-----|
            
Submit corrections

comments powered by Disqus
↑ Back to top | Jacks Mannequin Tabs for The Resolution. Lyrics for acoustic guitar and electric guitar. Tablatures and chords are parodies/interpretations of the original songs. You may use it for private study, scholarship, research or language learning purposes only