» » »

Jacks Mannequin, The Mixed Tape Tabs (ver.1)

Artists:  A B C D E F G H I J K L M N O P Q R S T U V W X Y Z # 

The Mixed Tape Tabs (ver.1)

Jacks Mannequin Tabs
 Rating:
4/5 (4 votes)
The Mixed Tape lessons Tabs too difficult? Try these video lessons and learn fast
                Verse
E|--------------------------------------------|
B|--------------------------------------------|
G|--6--5---5--10------------------------------|
D|--x--x---6--8-------------------------------| x 3
A|--x--4---x--6-------------------------------|
E|--6------4----------------------------------|

E|--------------------------------------------|
B|--------------------------------------------|
G|-----------66666666-8888888888888888--------|
D|-44444444--66666666-8888888888888888--------| x1
A|-44444444--44444444-6666666666666666--------|
E|-22222222-----------------------------------|
(lead part)
E|--------------------------------------------|
B|--------------------------------------------|
G|------1010-88-------------------------------|
D|---88---------11-11-------------------------|
A|--------------------------------------------|
E|--------------------------------------------|

Chorus
E|--------------------------------------------|
B|--------------------------------------------|
G|----3--6--8------6--------------------------|
D|-4--3--6--8----4-6-6------------------------| x2
A|-4--1--4--6----4-4-6------------------------|
E|-2-------------2---4------------------------|

Bridge
E|--------------------------------------------|
B|--------------------------------------------|
G|-8--6---------------------------------------|
D|-8--6-6-------------------------------------| x a bunch of times
A|-6--4-6-------------------------------------|
E|------4-------------------------------------|


Thats honestly the whole song... its alot easier than it sounds.

Order:

Verse x2
Chorusx2
Verse x2
Chorusx2
Bridge
Chorusx2

Theres a few parts varied in there, but thats the whole song.
            
Submit corrections

comments powered by Disqus
↑ Back to top | Jacks Mannequin Tabs for The Mixed Tape. Lyrics for acoustic guitar and electric guitar. Tablatures and chords are parodies/interpretations of the original songs. You may use it for private study, scholarship, research or language learning purposes only