» » »

Jacks Mannequin, Dark Blue Tabs (ver.1)

Artists:  A B C D E F G H I J K L M N O P Q R S T U V W X Y Z # 

Dark Blue Tabs (ver.1)

Jacks Mannequin Tabs
 Rating:
4/5 (4 votes)
Dark Blue lessons Tabs too difficult? Try these video lessons and learn fast
1
                ----------------------------------------------------------------------------
                             Dark Blue-Jack's Mannequin
----------------------------------------------------------------------------
The tabs are all hard to get but i'll try to make it easy. My version of dark blue.this
is idiot proof. Please rate and comment for any mistakes.

Tuning:standard

Piano plays for 0:12
this is were the guitar comes in

e|--6---------6------------|
B|-----8---------8------6--|
G|--------8---------8-----8|  play this 2 times then,
D|-------------------------|
A|-------------------------|
E|-------------------------|

e|--6---------6------------------6---------|
B|-----8---------8-----6---6--8------------|
G|--------8---------8----8-----------------|
D|-----------------------------------------|
A|-----------------------------------------|
E|-----------------------------------------|

I have (I have) you breathing down my neck (breathing down my neck)
e[----------------------------------------------------------------|
b[----------------------------------------------------------------|
g[----------------------------------------------------------------|
d[-8----------------------------8---------------------------------|
a[-6----------------------------5---------------------------------|
e[----------------------------------------------------------------|


I don't(don't know) what you could possibly expect under this condition so
e|-------------------------------------------------------------------------|
B|-------------------------------------------------------------------------|
G|-------------------------------------------------------------------------|
D|----------5--------------------------------------------------------------|
A|----------3------------------------------------------6------------------8|
E|-----------------------------------------------------4------------------6|


I'll wait (I'll wait) for the ambulance to come (ambulance to come)
Pick us up off the floor
What did you possibly expect under this condition so
e[-----------------|
b[-----------------|    While singing the top play this till you're finished
g[8-8-7-7-5-5-7-7--|    saying the words. i estimated to about 4 times
d[-8-8-8-8-8-8-8-8-|
a[-----------------|
e[-----------------|

Slow down.. this night's a perfect shade of
e[----------------------------------------------------------------------|
b[----------------------------------------------------------------------|
g[----------------------------------------------------------------------|
d[--8-------------------8-----------------------------------------------|
a[--6-------------------5-----------------------6-----------------------|
e[----------------------------------------------4-----------------------|

1.Dark blue (dark blue)
2.Dark blue (dark blue)
e[---|
b[---|
g[---|
d[--8|
a[--6|
e[---|

1.Have you ever been alone in a crowded room well I'm here with you
2.Have you ever been alone in a crowded room when im' here with you
e[--------------------------------------------------------------|
b[--------------------------------------------------------------|
g[--------------------------------------------------------------|
d[------8------------------------------------------------5------|
a[------5------------------------------------------------3------|
e[--------------------------------------------------------------|


1.I said the world could be burning down and burning down
2.I said the world could be burning 'til there's nothing but dark blue..
|-------------------------------------------------------|
|-------------------------------------------------------|
|-------------------------------------------------------|  repeat this
|-------------------------------------------------------|  again
|----------6-----------------------------------------8--|
|----------4-----------------------------------------6--|

now u play tht guitar intro again
|--6---------6-------------|
B|-----8---------8------6--|
G|--------8---------8-----8|  play this 2 times then,
D|-------------------------|
A|-------------------------|
E|-------------------------|

e|--6---------6------------------6---------|
B|-----8---------8-----6---6--8------------|
G|--------8---------8----8-----------------|
D|-----------------------------------------|
A|-----------------------------------------|
E|-----------------------------------------|

And this flood, this flood is slowly rising up, swallowing the ground
e[----------------------------------------------------------------|
b[----------------------------------------------------------------|
g[----------------------------------------------------------------|
d[-8----------------------------8---------------------------------|
a[-6----------------------------5---------------------------------|
e[----------------------------------------------------------------|

Beneath, my feet. Tell me how anybody thinks under this condition so
e|-------------------------------------------------------------------------|
B|-------------------------------------------------------------------------|
G|-------------------------------------------------------------------------|
D|----------5--------------------------------------------------------------|
A|----------3------------------------------------------6------------------8|
E|-----------------------------------------------------4------------------6|

I'll swim, I'll swim as the water rises up sun is sinking down and now
All I can see are the planets in a row suggesting it's best that I
e[-----------------|
b[-----------------|
g[8-8-7-7-5-5-7-7--|    you play this till u fishing singing the top part
d[-8-8-8-8-8-8-8-8-|    you'll get it
a[-----------------|
e[-----------------|

Slow down this nights a perfect shade of
e[----------------------------------------------------------------------|
b[----------------------------------------------------------------------|
g[----------------------------------------------------------------------|
d[--8-------------------8-----------------------------------------------|
a[--6-------------------5-----------------------6-----------------------|
e[----------------------------------------------4-----------------------|

1.Dark blue, dark blue
2.Dark blue, dark blue
e[---|
b[---|
g[---|
d[--8|
a[--6|
e[---|

1.Have you ever been alone in a crowded room well I'm here with you
2.Have you ever been alone in a crowded room when i'm here with you
e[--------------------------------------------------------------|
b[--------------------------------------------------------------|
g[--------------------------------------------------------------|
d[------8------------------------------------------------5------|
a[------5------------------------------------------------3------|
e[--------------------------------------------------------------|

I said the world could be burning and burning down
2.I said the world could be burning dark blue
|-------------------------------------------------------|
|-------------------------------------------------------|
|-------------------------------------------------------|  repeat this
|-------------------------------------------------------|  again
|----------6-----------------------------------------8--|
|----------4-----------------------------------------6--|

1.We were boxing, we were boxing the stars
2.We were boxing (we were boxing) you were swinging for Mars
e[----------------------------------------------------------|
b[----------------------------------------------------------|  this i s easy
g[5--------7---------5----7-------------8-------------------|  next
d[5--------7-------6-5----7-------------8-------------------|
a[3--------5-------6-3----5-------------6-------------------|
e[-----------------4----------------------------------------|

1.And then the water reached the west coast
2.and took the power lines, the power lines
3.And it was me and you and the whole town underwater
4.There was nothing we could do
e[---------------------------------------------------|
b[11-11-11-8-8-8-----11-11-11-8-8-8------------------|
g[-------------8-8-8---------------8-8-8-------------|play this 4 times its
d[---------------------------------------------------|hard but ull get it
a|---------------------------------------------------|
e[---------------------------------------------------|


e[---------------------------------------------------|
b[11-11-11-8-8-8-----11-11-11-8-8-8------------------|
g[-------------8-8-8---------------8-8-8-------------|  play this 3 times
d[---------------------------------------------------|
a|---------------------------------------------------|
e[---------------------------------------------------|


It was dark blue

1.Dark blue (dark blue)
2.Dark blue (dark blue)
e[---|
b[---|
g[---|
d[--8|
a[--6|
e[---|

1.Have you ever been alone in a crowded room well I'm here with you
2.Have you ever been alone in a crowded room when im' here with you
e[--------------------------------------------------------------|
b[--------------------------------------------------------------|
g[--------------------------------------------------------------|
d[------8------------------------------------------------5------|
a[------5------------------------------------------------3------|
e[--------------------------------------------------------------|


1.I said the world could be burning down and burning down
2.I said the world could be burning 'til there's nothing but dark blue..
|-------------------------------------------------------|
|-------------------------------------------------------|
|-------------------------------------------------------|  repeat this
|-------------------------------------------------------|  again
|----------6-----------------------------------------8--|
|----------4-----------------------------------------6--|

If you've ever been alone you'll know dark blue

If you've ever been alone you'll know, you'll know

e|--6---------6------------|
B|-----8---------8------6--|
G|--------8---------8-----8|  play this 2 times then,
D|-------------------------|
A|-------------------------|
E|-------------------------|

e|--6---------6------------------6---------|
B|-----8---------8-----6---6--8------------|
G|--------8---------8----8-----------------|
D|-----------------------------------------|
A|-----------------------------------------|
E|-----------------------------------------|


| /  slide up
| \  slide down
| h  hammer-on
| p  pull-off
| ~  vibrato
| +  harmonic
| x  Mute note
===============================================================================
            
Submit corrections

comments powered by Disqus
↑ Back to top | Jacks Mannequin Tabs for Dark Blue. Lyrics for acoustic guitar and electric guitar. 1 Tablatures and chords are parodies/interpretations of the original songs. You may use it for private study, scholarship, research or language learning purposes only