» » »

Jack Savoretti, Blackrain Tabs (ver.1)

Artists:  A B C D E F G H I J K L M N O P Q R S T U V W X Y Z # 

Blackrain Tabs (ver.1)

Jack Savoretti Tabs
 Rating:
4.2/5 (5 votes)
Blackrain lessons Tabs too difficult? Try these video lessons and learn fast
1
                -------------------------------------------------------------------------
BLACKRAIN – Jack Savoretti
-------------------------------------------------------------------------

>>A lot of picking in this one, I think I got most of it. As the song
progresses, the pattern becomes more and more elaborate, so try to
listen how he does it. You can, of course, strum your heart out as
well... Try it out.<< 

Capo on second fret!
Standard tuning

INTRO
   Em                C     D  Em                C     Dsus2
e|-------------0-----------2--------------0--------------0--------------|
B|-0-----0------0----0h1-0-3--0-----0------0----0h1-0-3-----------------|
G|----0------0---0---0---0-2-----0------0---0---0---0---2---------------|
D|---2-2---2---------2---2-0----2-2---2---------2---2-0-----------------|
A|----------------2--3---3-------------------2--3---3-------------------|
E|-0--------------------------0-----------------------------------------|

VERSE1 (pick as in intro)
Em                         C     D
   A dirty rain is falling at my feet
Em                            C      Dsus2
   And people walk pretending not to see
Em                           C    D
   And I don't know why everybody wants what they don't need
Em                         C     Dsus2

VERSE2 (picking pattern slightly elaborated)
   Em                C     D           Em                 C     Dsus2
e|-------------0--------------0h2p0----------------0---------------0---|
B|-0-----0------0----0h1-0-3--------3--0-----0---3--0-----0h1-0-3------|
G|----0------0---0---0---0---2------------0----------2-0--0---0---2----|
D|---2-2---2---------2---2-0-------------2-2---2----------2---2-0------|
A|----------------2--3---3-----------------------------2--3---3--------|
E|-0-----------------------------------0-------------------------------|

     Em                 C         D
It's everybody's world, one man's grave
    Em                              C       Dsus2
And heaven only knows what's hidden up this late
      Em                                 C        D 
Using diamonds, clubs, and spades, he'll win your heart
    Em                          C                Dsus2
And build a house of cards, and build a house of cards

CHORUS
   D       Em     C                  
e|-2h3p2-------------------------|   -------------|
B|-------3-0--0-0-0h1---1--0---1-|   -0h1---1--0--|
G|---------0-----------0-0----0-0|x3 ------0-0-0--|
D|-0-------2-2-2------2------2---|   -----2----2--|
A|----------------3--------3-----|   -3--------3--|
E|---------0---------------------|   -------------|

        D   Em   C
'Til we all fall down
       D   Em   C
And we all fall down
         D   Em   C
Watch us all fall down
           Em...
Like black rain

(...Em...C/G...Dadd4add9) x2

VERSE3 (more or less strummed, same chords as other verses)
The building's getting tall; watch it scr*pe the sky
Can't see the stars at all through the city lights
When the fuel runs low, who cares if we're getting high?
It's not the things you know, but the things that you deny

CHORUS
             D   Em   C
That make us all fall down
       D   Em   C
And we all fall down
         D   Em   C
Watch us all fall down
           Em   C  Bm
Like black rain
           Em   C  Bm
Like black rain

VERSE4 (picking again, same as verse 1)
A dirty rain is falling at my feet
And people walk pretending not to see
And I don't know why everybody wants what they don't need

CHORUS
Well we all fall down
'Til we all fall down
Watch the oil fall down
Like black rain
           Em   C   Bm (repeat until end)
Like black rain

(It's not always gonna rain)
(It's not always gonna rain)
(It's not always gonna rain)
(Black rain)
=============================================================
            
Submit corrections

comments powered by Disqus
↑ Back to top | Jack Savoretti Tabs for Blackrain. Lyrics for acoustic guitar and electric guitar. 1 Tablatures and chords are parodies/interpretations of the original songs. You may use it for private study, scholarship, research or language learning purposes only