» » »

Jack Savoretti, Dreamers Tabs (ver.1)

Artists:  A B C D E F G H I J K L M N O P Q R S T U V W X Y Z # 

Dreamers Tabs (ver.1)

Jack Savoretti Tabs
Rating:
0/5 (0 votes)
Dreamers lessons Tabs too difficult? Try these video lessons and learn fast
                Hi everyone, this is my first tab. Wonderful song but i've only been playing for 3 
but I think this is as close to the picking part as I can get. Sounds just like the original. 
update as I tab more of the song. Thanks, please rate!!


F Major

E|------------------1-------------------------------------1----------------------------|
B|--1---------1-----------------1-----1------------1------------------1----1-----------|
G|-------2-------2---------2-------2-----------2------2---------2-------2--------------|
D|----3-----3-----------3-----3-------------3----3-----------3----3--------------------|
A|-------------------------------------------------------------------------------------|
E|--1----------------------------------------------------------------------------------|

A Minor

E|---------------------------------------------------------------------------------------3--1--0|
B|0(h)1-------------1------3(p)1-------------1-----1---0(h)1-----------1------------------------|
G|-----------2---------2----------------2--------2---------------------2-------2----------------|
D|--------2-----2--------------------2-----2------------------------2----2----------------------|
A|0-----------------------------------------------------0---------------------------------------|
E|----------------------------------------------------------------------------------------------|
            
Submit corrections

comments powered by Disqus
↑ Back to top | Jack Savoretti Tabs for Dreamers. Lyrics for acoustic guitar and electric guitar. Tablatures and chords are parodies/interpretations of the original songs. You may use it for private study, scholarship, research or language learning purposes only