» » »

Jackopierce, Three Of Us In A Boat Tabs (ver.1)

Artists:  A B C D E F G H I J K L M N O P Q R S T U V W X Y Z # 

Three Of Us In A Boat Tabs (ver.1)

Jackopierce Tabs
 Rating:
4/5 (4 votes)
Three Of Us In A Boat lessons Tabs too difficult? Try these video lessons and learn fast
1
                Three of Us in a Boat lyrics and music by Cary Pierce performed by
Jackopierce on the album "Jackopierce" 
                                                 
                            Three Of us in a Boat

guitar part 1
 
e|---3---3--3--3----2--3--2--3--3-----|
B|---3---3--3--3----3--3--3--3--3-----|
G|---0---0--0--0----2--2--2--2--2-----|
D|---0---2--2--2----0--0--0--0--0-----|
A|---2---3--3--3----------------------|
E|-3----------------------------------|

Solo:
 Play notes as written

--12--12h-15p-12-------------------------------12--12h-15p-12---------12-----
------------------15--12---------------------------------------15-12-----15--
--------------------------14^^14--12-----------------------------------------
--------------------------------------14-------------------------------------

--12--12h-15p-12-------------------------------------------------------------
------------------15--12-----------------------------------------------------
--------------------------14^^14--12--------------12---14--12----------------
--------------------------------------14--12h-14----------------14---12\-----

----------------------------------------8p-5-----5---------------------------
-------------------------------4--5--7--------7-----7--5--4------------------
----------------------4--5--7--------------------------------7--5--4---------
-------------3--5--7---------------------------------------------------7--5--
---3--5--7-------------------------------------------------------------------

--15-15-----8-8-8--10-10-10--8-8-8----15-15---8-8-8--10-10-10\----------
--15-15-----8-8-8--10-10-10--8-8-8----15-15---8-8-8--10-10-10\----------

Verses:(guitar part 1 unless otherwise noted)

I loved you and you know it
So I wrote a song just like Farley Mowat
For a little while I was your dual lover
I knew this would happen one way or another

Looks like I'm getting ready to swim
The chances of him walking the plank 
Are looking pretty slim

Three of us in a boat
And it doesn't look like this boat's gonna float
Three of us in a boat
And it won't float

She said, "I hope you have some agility,"
"I hope you have some aquatic ability."
We all know this is your ship, my dear
So don't say a word, it's perfectly clear

I've got my suit on, I'm going in
With a heart as fragile as mine 
Why did we even begin?

G               D
I've found new days of sunshine

G               D
I've found new days of sunshine

Looks like we're in for nasty weather
But if you're meant to be 
Then you'll stick together
Don't come crying to me 
When your horizons turn dark and gray, babe

Outro:
-15-15--8-8-8--10-10-10--8-8-8----15-15--8-8-8--10-10-10--------------------
-15-15--8-8-8--10-10-10--8-8-8----15-15--8-8-8--10-10-10--------------------

--15-15-15-17-17--15-15-15-17-17--15-15-15-17-17--15-15-15-17-17--15-15-15--
--15-15-15-17-17--15-15-15-17-17--15-15-15-17-17--15-15-15-17-17--15-15-15--

-17-17-17-17-17\--------
-17-17-17-17-17\--------
------------------------
------------------------
------------------------
------------------------

For mailing list information or to order discs, tapes, and t-shirts:

Jackopierce c/o Rhythmic Records
5612 Yale Blvd #208
Dallas, TX 75206
1(214)696-0766


Any additions, correction, or comments are welcome.

Craig Scrimpshire
            
Submit corrections

comments powered by Disqus
↑ Back to top | Jackopierce Tabs for Three Of Us In A Boat. Lyrics for acoustic guitar and electric guitar. 1 Tablatures and chords are parodies/interpretations of the original songs. You may use it for private study, scholarship, research or language learning purposes only