» » »

Jack Off Jill, Girl Scout Tabs (ver.2)

Artists:  A B C D E F G H I J K L M N O P Q R S T U V W X Y Z # 

Girl Scout Tabs (ver.2)

Jack Off Jill Tabs
 Rating:
4/5 (4 votes)
Girl Scout lessons Tabs too difficult? Try these video lessons and learn fast
                This is the entire song, interludes and all.

2 Guitars, they play the same rhythm together the entire song, except for the final chorus.

Drum Intro



Verse
    E              G              C              D
e|--0~~-0-0-0----33-3-3333-3----00-0-0000-0----22-2-2222-2----|
B|--0~~-0-0-0----33-3-3333-3----11-1-1111-1----33-3-3333-3----|
G|--1~~-1-1-1----00-0-0000-0----00-0-0000-0----22-2-2222-2----|
D|--2~~-2-2-2----00-0-0000-0----22-2-2222-2----00-0-0000-0----|
A|--2~~-2-2-2----22-2-2222-2----33-3-3333-3-------------------|
E|--0~~-0-0-0----33-3-3333-3----------------------------------|
If you want it, did you never want for more
The Girl Scout fell from grace

    E              G              C              D
e|--00-0-0000-0----33-3-3333-3----00-0-0000-0----22-2-2222-2----|-|
B|--00-0-0000-0----33-3-3333-3----11-1-1111-1----33-3-3333-3----|-|
G|--11-1-1111-1----00-0-0000-0----00-0-0000-0----22-2-2222-2----|x|
D|--22-2-2222-2----00-0-0000-0----22-2-2222-2----00-0-0000-0----|2|
A|--22-2-2222-2----22-2-2222-2----33-3-3333-3-------------------|-|
E|--00-0-0000-0----33-3-3333-3----------------------------------|-|

If you want it, did you never want for more
I spit inside her face
If you want it, did you never want for more
The lines that cut right through

    E              G               C5                    D5
e|--00-0-0000-0----33-3-3333-3------------------------------------------------|
B|--00-0-0000-0----33-3-3333-3------------------------------------------------|
G|--11-1-1111-1----00-0-0000-0------------------------------------------------|
D|--22-2-2222-2----00-0-0000-0-----1010-10-10101010-10----1212-12-12121212-12-|
A|--22-2-2222-2----22-2-2222-2-----1010-10-10101010-10----1212-12-12121212-12-|
E|--00-0-0000-0----33-3-3333-3------8-8--8--8-8-8-8--8----1010-10-10101010-10-|
If you want it, did you never want for more
The numbness that was you


Chorus
    E             C             D     
e|--00-0-0000-0---33-3-3333-3---55-5-5555-5---55-5-5555-5--|-|
B|--00-0-0000-0---55-5-5555-5---77-7-7777-7---77-7-7777-7--|-|
G|--11-1-1111-1---55-5-5555-5---77-7-7777-7---77-7-7777-7--|x|
D|--22-2-2222-2---55-5-5555-5---77-7-7777-7---77-7-7777-7--|4|
A|--22-2-2222-2---33-3-3333-3---55-5-5555-5---77-7-7777-7--|-|
E|--00-0-0000-0--------------------------------------------|-|
What I want
and what I need
To sacrifice what I believe
My little Girl Scout
Your mouth is getting sore
Will you love me any less
If I hurt you any more?  


Post-Chorus Interlude
e|--000-000-00--000-000-00--000-000-00----000-000-00---|
B|--555-555-55--444-444-44--555-555-55----444-444-44///|
G|-----------------------------------------------------|
D|-----------------------------------------------------|
A|-----------------------------------------------------|
E|-----------------------------------------------------|
ah, ah-ah...

e|--0-0-0--0-0-0--0-0---0-0-0--0-0-0--0-0---0-0-0--0-0-0--0-0---0-0-0--0-0-0--0-0-----|
B|/121212-121212-1212--111111-111111-1111--121212-121212-1212--111111-111111-1111-12\-|
G|------------------------------------------------------------------------------------|
D|------------------------------------------------------------------------------------|
A|------------------------------------------------------------------------------------|
E|------------------------------------------------------------------------------------|
ah, ah-ah...


Verse

    E              G              C              D
e|--00-0-0000-0----33-3-3333-3----00-0-0000-0----22-2-2222-2----|-|
B|--00-0-0000-0----33-3-3333-3----11-1-1111-1----33-3-3333-3----|-|
G|--11-1-1111-1----00-0-0000-0----00-0-0000-0----22-2-2222-2----|x|
D|--22-2-2222-2----00-0-0000-0----22-2-2222-2----00-0-0000-0----|3|
A|--22-2-2222-2----22-2-2222-2----33-3-3333-3-------------------|-|
E|--00-0-0000-0----33-3-3333-3----------------------------------|-|
If you want it, did you never want for more
Cleansing every sore
If you want it, did you never want for more
Sold from door to door
If you want it, did you never want for more
Finish what you start

    E              G               C5                    D5
e|--00-0-0000-0----33-3-3333-3------------------------------------------------|
B|--00-0-0000-0----33-3-3333-3------------------------------------------------|
G|--11-1-1111-1----00-0-0000-0------------------------------------------------|
D|--22-2-2222-2----00-0-0000-0-----1010-10-10101010-10----1212-12-12121212-12-|
A|--22-2-2222-2----22-2-2222-2-----1010-10-10101010-10----1212-12-12121212-12-|
E|--00-0-0000-0----33-3-3333-3------8-8--8--8-8-8-8--8----1010-10-10101010-10-|
If you want it, did you never want for more
De-humanize my heart



Chorus
    E             C             D     
e|--00-0-0000-0---33-3-3333-3---55-5-5555-5---55-5-5555-5--|-|
B|--00-0-0000-0---55-5-5555-5---77-7-7777-7---77-7-7777-7--|-|
G|--11-1-1111-1---55-5-5555-5---77-7-7777-7---77-7-7777-7--|x|
D|--22-2-2222-2---55-5-5555-5---77-7-7777-7---77-7-7777-7--|4|
A|--22-2-2222-2---33-3-3333-3---55-5-5555-5---77-7-7777-7--|-|
E|--00-0-0000-0--------------------------------------------|-|
PM       ....          ....          ....          ....     
What I want
and what I need
To sacrifice what I believe
My little Girl Scout
Your mouth is getting sore
Will you love me any less
If I hurt you any more? 

Post-Chorus Interlude
e|--000-000-00--000-000-00--000-000-00----000-000-00---|
B|--555-555-55--444-444-44--555-555-55----444-444-44///|
G|-----------------------------------------------------|
D|-----------------------------------------------------|
A|-----------------------------------------------------|
E|-----------------------------------------------------|
ah, ah-ah...
e|--0-0-0--0-0-0--0-0---0-0-0--0-0-0--0-0---0-0-0--0-0-0--0-0---0-0-0--0-0-0--0-0-----|
B|/121212-121212-1212--111111-111111-1111--121212-121212-1212--111111-111111-1111-12\-|
G|------------------------------------------------------------------------------------|
D|------------------------------------------------------------------------------------|
A|------------------------------------------------------------------------------------|
E|------------------------------------------------------------------------------------|
ah, ah-ah...

Verse 3
    E
e|--0~--|
B|--0~--|
G|--1~--|
D|--2~--|
A|--2~--|
E|--0~--|
I was never your number one fan
How can I grow a girl away
When you never were a man?
And I was never nice, and I've gone too far
You don't need to be nice when you've been 

Pre-Chorus Interlude
e|--000-000-00--000-000-00--000-000-00----000-000-00---|
B|--555-555-55--444-444-44--555-555-55----444-444-44///|
G|-----------------------------------------------------|
D|-----------------------------------------------------|
A|-----------------------------------------------------|
E|-----------------------------------------------------|
Kissed by a star
Kissed by a star
Kissed by a star
Hurt by a star
e|--0-0-0--0-0-0--0-0---0-0-0--0-0-0--0-0---0-0-0--0-0-0--0-0---0-0-0--0-0-0--0-0-----|
B|/121212-121212-1212--111111-111111-1111--121212-121212-1212--111111-111111-1111-12\-|
G|------------------------------------------------------------------------------------|
D|------------------------------------------------------------------------------------|
A|------------------------------------------------------------------------------------|
E|------------------------------------------------------------------------------------|
f**ked by a star
Kissed by a star
Kissed by a star
Kissed by a star

(Wow) Wow...

Chorus**

    E             C             D     
e|--00-0-0000-0---33-3-3333-3---55-5-5555-5---55-5-5555-5--|-|
B|--00-0-0000-0---55-5-5555-5---77-7-7777-7---77-7-7777-7--|-|
G|--11-1-1111-1---55-5-5555-5---77-7-7777-7---77-7-7777-7--|x|
D|--22-2-2222-2---55-5-5555-5---77-7-7777-7---77-7-7777-7--|4|
A|--22-2-2222-2---33-3-3333-3---55-5-5555-5---77-7-7777-7--|-|
E|--00-0-0000-0--------------------------------------------|-|
PM       ....          ....          ....          ....     
f**k I want
f**k I need
I'll sacrifice what I believe
My little Girl Scout
Your mouth is getting sore
Will you love me any less
If I hurt you any more? 

**Guitar2 for final chorus
e|-----------------------------------------------------------------------------------|
B|--15br-14--15br-14--15br-14--15br-14---17b/18-16--17b/18-16--17b/18-16--17b/18-16--|
G|-----------------------------------------------------------------------------------|
D|-----------------------------------------------------------------------------------|
A|-----------------------------------------------------------------------------------|
E|-----------------------------------------------------------------------------------|

Guitar one end on E.

Guitar two outro
e|------------|-|------|
B|--5555-55-4-|-|-5br/-|
G|------------|x|------|
D|------------|5|------|
A|------------|-|------|
E|------------|-|------|
            
Submit corrections

comments powered by Disqus
↑ Back to top | Jack Off Jill Tabs for Girl Scout. Lyrics for acoustic guitar and electric guitar. Tablatures and chords are parodies/interpretations of the original songs. You may use it for private study, scholarship, research or language learning purposes only