» » »

Jack Johnson, Wasting Time Bass tabs (ver.1)

Artists:  A B C D E F G H I J K L M N O P Q R S T U V W X Y Z # 

Wasting Time Bass tabs (ver.1)

Jack Johnson Tabs
Rating:
0/5 (0 votes)
Wasting Time lessons Tabs too difficult? Try these video lessons and learn fast
                G|-------|
D|-------|
A|--6-6--| 
E|-------|

G|--------------------------------|
D|--8-8-5-8-5------8-8-5-8-5------|
A|------------8-8------------6-6--| X3
E|--------------------------------|

G|------------------------------|
D|------------------------------|
A|------5-8--8-8------5-8--6-6--| X5
E|--6-6-----------6-6-----------|

G|--------------------------------|
D|--8-8-5-8-5------8-8-5-8-5------|
A|------------8-8------------6-6--| X2
E|--------------------------------|

G|------------------------------|
D|------------------------------|
A|------5-8--8-8------5-8--6-6--| X4
E|--6-6-----------6-6-----------|

G|-------------------------|
D|-------------------------|
A|------5-8--8-8------5-8--| 
E|--6-6-----------6-6------|

G|---------------------------|
D|--6-----6-6-6-6-8-----8-8--|
A|----4-6-----------6-8------| X2
E|---------------------------|

G|--------------------------------|
D|------8-8-5-8-5------8-8-5-8-5--|
A|--6-6-----------8-8-------------| X4
E|--------------------------------|

G|-------|
D|-------|
A|--6-6--|
E|-------|

G|------------------------------|
D|------------------------------|
A|------5-8--8-8------5-8--6-6--| X4
E|--6-6-----------6-6-----------|

G|-------------------------|
D|-------------------------|
A|------5-8--8-8------5-8--| 
E|--6-6-----------6-6------|

G|---------------------------|
D|--6-----6-6-6-6-8-----8-8--|
A|----4-6-----------6-8------| X2
E|---------------------------|

G|---------------------------------|
D|------8-8-5-8-5------8-8-5-8-5---|
A|--6-6-----------8-8--------------| X3
E|---------------------------------|

G|-----------------------------------|
D|------8-8-5-8-5------8-8-5-8-5-----|
A|--6-6-----------8-8------------6---| 
E|-----------------------------------|
            
Submit corrections

comments powered by Disqus
↑ Back to top | Jack Johnson Bass for Wasting Time. Lyrics for acoustic guitar and electric guitar. Tablatures and chords are parodies/interpretations of the original songs. You may use it for private study, scholarship, research or language learning purposes only