» » »

Jack Johnson, Wasting Time Tabs (ver.1)

Artists:  A B C D E F G H I J K L M N O P Q R S T U V W X Y Z # 

Wasting Time Tabs (ver.1)

Jack Johnson Tabs
Rating:
0/5 (0 votes)
Wasting Time lessons Tabs too difficult? Try these video lessons and learn fast
                Song - Wasting Time
Artist - Jack Johnson
Album - On and On
Tuning - Standard Tuning

Intro
|----------------------5-------------------------------5-|
|----------------------5--------7-h8---7-h8-7-7--------5-|
|--7----7----7-7-------6--------7-h9---7-h9-7-7--------6-|
|--7-h9-7-h9-7-7-------7--------7-h9---7-h9-7-7-7------7-|
|----------------7-5---7---------------------------7-5-7-|
|-------------------5--5-------------------------------5-|

Verse
  D    A    Em   A
|------5----7----5-|
|-7----5----8----5-|
|-7----6----9----6-|
|-7----7----9----7-|
|-5----7----7----7-|
|------5---------5-|

Verse Fill – Listen for when it comes in
|-7---|
|-7h8-|
|-7---|
|-----|
|-----|
|-----|

Bridge
  G    A
|-3----0-|
|-0----2-|
|-0----2-|
|-0----2-|
|-2----0-|
|-3------|


Pre Solo
|------------|
|------------|
|------7-----|
|----7---9-7-|
|-/9---------|
|------------|

Solo
|----------------------------------------------------------------|
|----------------------------------------------------------------|
|-7h9--7h9--7-7---------12-12----11-11-9-9---7h9p7---------------|
|---------------9-9-7------------------------------9--7h9p7------|
|-----------------------------------------------------------9----|
|-------------------------------------------------------------10-|

Intro X2
Verse X5
Intro X2
Verse X5
Bridge X2
Intro X2
Pre Solo
Solo X2
Verse X5
Bridge X2
Intro X2
Solo X2
End on D Chord
            
Submit corrections

comments powered by Disqus
↑ Back to top | Jack Johnson Tabs for Wasting Time. Lyrics for acoustic guitar and electric guitar. Tablatures and chords are parodies/interpretations of the original songs. You may use it for private study, scholarship, research or language learning purposes only