» » »

Jack Johnson, Mediocre Bad Guys Tabs (ver.1)

Artists:  A B C D E F G H I J K L M N O P Q R S T U V W X Y Z # 

Mediocre Bad Guys Tabs (ver.1)

Jack Johnson Tabs
Rating:
0/5 (0 votes)
Mediocre Bad Guys lessons Tabs too difficult? Try these video lessons and learn fast
                Song – Mediocre Bad Guys
Artist – Jack Johnson
Album – On and On
Tuning – Standard

Chords used in song
  Bm      A       E
|-7-------5-------0-|
|-7-------5-------0-|
|-7-------6-------1-|
|-9-------7-------2-|
|-9-------7-------2-|
|-7-------5-------0-|

Intro
|-------------------------------------------------------|
|-------------------------------------------------------|
|-------------------------------------------------------|
|--9----------9-----------2-----------------------------|
|--9—-7h9p7/--7---7h9p7/--0---7h9p7---------------5-5/9-|
|--7---------------------------------3-3-3/7-7----------|

Well don't give me no comic book sad looks no more,
please don't use those same excuses you've used before,
mmmh mhhmmm,
you told yourself so many times its okay,
so be good to try, but you just don't know how to come back down,

and now you beat me up and break me down,
hoping I don't come around,
kick me when I’m on the ground,

|----------|
|----------|
|----------|
|----------| this riff used often
|------5-9-|
|--3-7-----|

beating me up, breaking me down,
hoping I don't come around,
kicking me when I’m on the ground

             Bm                    E
|------------7---------------------7------------------|
|------------7---------------------9------------------|
|------------7--7-9-7--------7-----9--------7-------7-|
|------------9---------9-7-9-------9-----7-9--9-7-9---|
|------5-9---9---------------------7--7-9-------------|
|--3-7-------7----------------------------------------|

well how about those people I know, 
that you know the ones I mean,
not so good, not so bad, 
only know what they have,
and they have only what they've seen,
those mediocre bad guys can really bring you down,
they can't be defeated, and you know,
they're never going to come around,

they just beat me up and break me down,
hoping I don't come around,
kick me when I’m on the ground,
beating me up, breaking me down,
hoping I don't come around,
kicking me when I’m on the ground,

Well somebody's something was left in the room,
and now that it's gone of course we assume,
that somebody else needed something so bad,
that they took everything somebody had,
somebody saw him jump yeah but nobody saw him slip,
I guess he lost a lot of hope and then he lost his grip,
and now he's lying in the freeway in the middle of this mess,
I guess we lost another one, just like the other one,

beat me up and break me down,
hoping I don't come around,
kick me when I’m on the ground,
beating me up, breaking me down,
hoping I don't come around,
kicking me when I’m on the ground,

beat me up, break me down,
hoping I don't come around,
kick me when I’m on the ground,
beat me up, break me down,
hoping I don't come around,
kick me when I’m on the ground.
            

comments powered by Disqus
↑ Back to top | Jack Johnson Tabs for Mediocre Bad Guys. Lyrics for acoustic guitar and electric guitar. Tablatures and chords are parodies/interpretations of the original songs. You may use it for private study, scholarship, research or language learning purposes only