» » »

Jack Johnson, Holes To Heaven Tabs (ver.1)

Artists:  A B C D E F G H I J K L M N O P Q R S T U V W X Y Z # 

Holes To Heaven Tabs (ver.1)

Jack Johnson Tabs
Rating:
0/5 (0 votes)
Holes To Heaven lessons Tabs too difficult? Try these video lessons and learn fast
                Holes to Heaven by Jack Johnson
For accoustic guitar
A really cool song.. its pretty easy! Im pretty sure that this tab is correct- if I'm wrong please send corrections :)

Main Riff

e-------------------------
B-------------------------
G-------------------------
D-------------------------
A-----------0-------------
E--3-3-3-2---3-2-0------

Play this 8 times then start singing
(Keep playing this riff)

The air was more than human 
and the heat was more than hungry 
and the cars were square and spitting diesel fumes
(On fumes play an Em Chord on the 7th Fret- my hands are too small to be able to play that chord so I just play it normally- much easier and sounds fine... when the chord is being played it has an electric guitar playing a short note- just slap your guitar in place of it...)

Main Riff:
e--------------------------------------------------------------------------
B--------------------------------------------------------------------------
G--------------------------------------------------------------------------
D--------------------------------------------------------------------------
A-----------0-------------------0-------------------0---------------------
E--3-3-3-2---3-2-0---3-3-3-2----3-2-0--3-333-2----3-2-3-0------------

Boars were running wild because
there big and mean and sacred
and the children were playing cricket with no shoes
(On shoes play an Em Chord on the 7th fret)

(Another guitar plays here.. but here are the chords)
         A
The next morning we woke up man
to a seven hour drive
         C   
and there we were stuck in Port Blair
where boats break and children stare

Chorus:
          G                               D9
And there were so many fewer questions 
           Em                    D                             C            Dm         A             Chorus x 2
when stars were still just the holes to heaven hm....

Main Riff:
e--------------------------------------------------------------------------
B--------------------------------------------------------------------------
G--------------------------------------------------------------------------
D--------------------------------------------------------------------------
A-----------0-------------------0-------------------0---------------------
E--3-3-3-2---3-2-0---3-3-3-2----3-2-0--3-333-2----3-2-3-0------------

(Play main riff for these lines)
Disembarking from the port 
with no mistakes of any sort
moving south the engine running smooth
(On smooth play an Em Chord on 7th fret)
(Play main riff for these lines)
Officials were quite friendly once we
drowned them with out sweet talk
and bribed them with out cigarrettes and booze
(On booze play an Em Chord on 7th fret)
          
          A
The next morning we woke up man 
with the sunrise to the right 
C
moving back to Port Blair
Were boats break and children stare

Chorus:
          G                               D9
And there were so many fewer questions 
           Em                    D                             C            Dm         A             Chorus x 2
when stars were still just the holes to heaven hm....

(Then play main riff for about 8 times then fade away)

Main Riff

e-------------------------
B-------------------------
G-------------------------
D-------------------------
A-----------0-------------
E--3-3-3-2---3-2-0------
            

comments powered by Disqus
↑ Back to top | Jack Johnson Tabs for Holes To Heaven. Lyrics for acoustic guitar and electric guitar. Tablatures and chords are parodies/interpretations of the original songs. You may use it for private study, scholarship, research or language learning purposes only