» » »

From The Clouds Tabs (ver.2)

Artists:  A B C D E F G H I J K L M N O P Q R S T U V W X Y Z # 

From The Clouds Tabs (ver.2)

Jack Johnson
Rating:
0/5 (0 votes)

Hard to play? Try these video lessons and learn fast.
                *Visit my profile to see my other tabs and have a listen to my songs*

e--3------------------------l
B--3--8--8\3--5--5--5\7--7--l
G--4--9--9\4--5--5--5\7--7--l
D--5------------------------l
A--5------------------------l
E--3------------------------l

e--3-------------------l
B--3--8--8\3------7----l
G--4--9--9\4---5/7-7-5-l
D--5-------------------l
A--5-------------------l
E--3-------------------l

e--3------------------------l
B--3--8--8\3--5--5--5\7--7--l
G--4--9--9\4--5--5--5\7--7--l
D--5------------------------l
A--5------------------------l
E--3------------------------l

e--3--------------------l
B--3--8--8\3----5-------l
G--4--9--9\4--5---5-2---l
D--5-----------------4--l
A--5--------------------l
E--3--------------------l

e-----------------------------------------------------------l
B-----------------------------------------------------------l
G-------4---------------------------4-----------------------l
D---5-5--5--0-----------4-----5-5--5--0-----------4---------l    x2
A----------------3-3\5-5--5----------------3-3\5-5----------l
E-----------------------------------------------------------l

e---3---x---x---3---x---8---x---x---7\5---l
B---3---x---x---3---x---8---x---x---7\5---l
G---4---x---x---4---x---9---x---x---7\5---l
D---5---x---x---5---x--10---x---x---7\5---l    x4
A---5---x---x---5---x--10---x---x---9\7---l
E---3---x---x---3---x---8---x---x---7\5---l

e---5---x---x---5---x-5---x---x-5---l
B---5---x---x---5---x-5---x---x-5---l
G---5---x---x---5---x-5---x---x-5---l
D---7---x---x---7---x-7---x---x-7---l
A---7---x---x---7---x-7---x---x-7---l
E---5---x---x---5---x-5---x---x-5---l

e--3-----------------------------5---x---x---5---x-5---x---x-5---l
B--3--8--8\3--5--5\7—7-----------5---x---x---5---x-5---x---x-5---l
G--4--9--9\4--5--5\7—7-----------5---x---x---5---x-5---x---x-5---l
D--5-----------------------------7---x---x---7---x-7---x---x-7---l
A--5-----------------------------7---x---x---7---x-7---x---x-7---l
E--3-----------------------------5---x---x---5---x-5---x---x-5---l

e--3-----------------------------------------------------------------l
B--3--8--8\3--5--5\7—7-----------------------------------------------l
G--4--9--9\4--5--5\7—7-------4------------------------4--------------l
D--5----------------------5-5--5--0---------4---5-5--5--0--------4---l
A--5---------------------------------3-3\5-5--5-----------3-3\5-5----l
E--3-----------------------------------------------------------------l

e-----------------------------------------------------------l
B-----------------------------------------------------------l
G-------4---------------------------4-----------------------l
D---5-5--5--0-----------4-----5-5--5--0-----------4---------l
A----------------3-3\5-5--5----------------3-3\5-5----------l
E-----------------------------------------------------------l

e---3---x---x---3---x---8---x---x---7\5---l
B---3---x---x---3---x---8---x---x---7\5---l
G---4---x---x---4---x---9---x---x---7\5---l
D---5---x---x---5---x--10---x---x---7\5---l    x8
A---5---x---x---5---x--10---x---x---9\7---l
E---3---x---x---3---x---8---x---x---7\5---l

e---5---x---x---5---x-5---x---x-5---l
B---5---x---x---5---x-5---x---x-5---l
G---5---x---x---5---x-5---x---x-5---l
D---7---x---x---7---x-7---x---x-7---l
A---7---x---x---7---x-7---x---x-7---l
E---5---x---x---5---x-5---x---x-5---l

e--3-----------------------------5---x---x---5---x-5---x---x-5---l
B--3--8--8\3--5--5\7—7-----------5---x---x---5---x-5---x---x-5---l
G--4--9--9\4--5--5\7—7-----------5---x---x---5---x-5---x---x-5---l
D--5-----------------------------7---x---x---7---x-7---x---x-7---l
A--5-----------------------------7---x---x---7---x-7---x---x-7---l
E--3-----------------------------5---x---x---5---x-5---x---x-5---l

e--3-------------------------x--x-----x-------------------x--x-----x----l
B--3--8--8\3--5--5\7—7----5--x--x--5--x-5---------------7-x--x--7--x--7-l
G--4--9--9\4--5--5\7—7----5--x--x--5--x-5---------5-----7-x--x--7--x--7-l
D--5----------------------5--x--x--5--x-5---------5-----7-x--x--7--x--7-l
A--5----------------------3--x--x--3--x-3--3-3-5\7--7---5-x--x--5--x--5-l
E--3-------------------------x--x-----x-------------------x--x-----x----l

e-----x--x-----x--------------------x--x----x---------------l
B--5--x--x--5--x-5---------------7--x--x----x-----7-7-------l
G--5--x--x--5--x-5---------5-----7--x--x-7--x-----7-7-------l
D--5--x--x--5--x-5---------5-----7--x--x-7--x--7\9---9-9-7--l
A--3--x--x--3--x-3--3-3-5\7--7---5--x--x-5--x---------------l
E-----x--x-----x--------------------x--x----x---------------l

e--3--------------------------3------------------------l
B--3--8--8\3--5--5\7—7--------3--8--8\3--5--5\7--7-----l
G--4--9--9\4--5--5\7—7--------4--9--9\4--5--5\7--7-----l
D--5--------------------------5------------------------l
A--5--------------------------5------------------------l
E--3--------------------------3------------------------l

e-----------------------------------------------------------l
B-----------------------------------------------------------l
G-------4---------------------------4-----------------------l
D---5-5--5--0-----------4-----5-5--5--0-----------4---------l    x2
A----------------3-3\5-5--5----------------3-3\5-5----------l
E-----------------------------------------------------------l

e---3--x--x--3--x--8--x--x--7\5--3--l
B---3--x--x--3--x--8--x--x--7\5--3--l
G---4--x--x--4--x--9--x--x--7\5--4--l
D---5--x--x--5--x-10--x--x--7\5--5--l
A---5--x--x--5--x-10--x--x--9\7--5--l
E---3--x--x--3--x--8--x--x--7\5--3--l
            
Hard to play? Try these video lessons and learn fast. | Correct




comments powered by Disqus
↑ Back to top | Tablatures and chords are parodies/interpretations of the original songs. You may use it for private study, scholarship, research or language learning purposes only