>
 >
From The Clouds 1

From The Clouds 1 Guitar Tabs

Jack Johnson - From The Clouds 1 chords, tabs, tablatures, lyrics

Guitar lessons | Add/correct | Request | Top 50 tabs Artists:  A B C D E F G H I J K L M N O P Q R S T U V W X Y Z 0-9

From The Clouds 1 Guitar Tabs – Jack Johnson

CD, Sheet music, Poster

Do you like From The Clouds 1? Share with your friends now
ChordsTabsTabs v2Tabs v3Ukulele
*Visit my profile to see my other tabs and have a listen to my songs*

e--3------------------------l
B--3--8--8\3--5--5--5\7--7--l
G--4--9--9\4--5--5--5\7--7--l
D--5------------------------l
A--5------------------------l
E--3------------------------l

e--3-------------------l
B--3--8--8\3------7----l
G--4--9--9\4---5/7-7-5-l
D--5-------------------l
A--5-------------------l
E--3-------------------l

e--3------------------------l
B--3--8--8\3--5--5--5\7--7--l
G--4--9--9\4--5--5--5\7--7--l
D--5------------------------l
A--5------------------------l
E--3------------------------l

e--3--------------------l
B--3--8--8\3----5-------l
G--4--9--9\4--5---5-2---l
D--5-----------------4--l
A--5--------------------l
E--3--------------------l

e-----------------------------------------------------------l
B-----------------------------------------------------------l
G-------4---------------------------4-----------------------l
D---5-5--5--0-----------4-----5-5--5--0-----------4---------l    x2
A----------------3-3\5-5--5----------------3-3\5-5----------l
E-----------------------------------------------------------l

e---3---x---x---3---x---8---x---x---7\5---l
B---3---x---x---3---x---8---x---x---7\5---l
G---4---x---x---4---x---9---x---x---7\5---l
D---5---x---x---5---x--10---x---x---7\5---l    x4
A---5---x---x---5---x--10---x---x---9\7---l
E---3---x---x---3---x---8---x---x---7\5---l

e---5---x---x---5---x-5---x---x-5---l
B---5---x---x---5---x-5---x---x-5---l
G---5---x---x---5---x-5---x---x-5---l
D---7---x---x---7---x-7---x---x-7---l
A---7---x---x---7---x-7---x---x-7---l
E---5---x---x---5---x-5---x---x-5---l

e--3-----------------------------5---x---x---5---x-5---x---x-5---l
B--3--8--8\3--5--5\77-----------5---x---x---5---x-5---x---x-5---l
G--4--9--9\4--5--5\77-----------5---x---x---5---x-5---x---x-5---l
D--5-----------------------------7---x---x---7---x-7---x---x-7---l
A--5-----------------------------7---x---x---7---x-7---x---x-7---l
E--3-----------------------------5---x---x---5---x-5---x---x-5---l

e--3-----------------------------------------------------------------l
B--3--8--8\3--5--5\77-----------------------------------------------l
G--4--9--9\4--5--5\77-------4------------------------4--------------l
D--5----------------------5-5--5--0---------4---5-5--5--0--------4---l
A--5---------------------------------3-3\5-5--5-----------3-3\5-5----l
E--3-----------------------------------------------------------------l

e-----------------------------------------------------------l
B-----------------------------------------------------------l
G-------4---------------------------4-----------------------l
D---5-5--5--0-----------4-----5-5--5--0-----------4---------l
A----------------3-3\5-5--5----------------3-3\5-5----------l
E-----------------------------------------------------------l

e---3---x---x---3---x---8---x---x---7\5---l
B---3---x---x---3---x---8---x---x---7\5---l
G---4---x---x---4---x---9---x---x---7\5---l
D---5---x---x---5---x--10---x---x---7\5---l    x8
A---5---x---x---5---x--10---x---x---9\7---l
E---3---x---x---3---x---8---x---x---7\5---l

e---5---x---x---5---x-5---x---x-5---l
B---5---x---x---5---x-5---x---x-5---l
G---5---x---x---5---x-5---x---x-5---l
D---7---x---x---7---x-7---x---x-7---l
A---7---x---x---7---x-7---x---x-7---l
E---5---x---x---5---x-5---x---x-5---l

e--3-----------------------------5---x---x---5---x-5---x---x-5---l
B--3--8--8\3--5--5\77-----------5---x---x---5---x-5---x---x-5---l
G--4--9--9\4--5--5\77-----------5---x---x---5---x-5---x---x-5---l
D--5-----------------------------7---x---x---7---x-7---x---x-7---l
A--5-----------------------------7---x---x---7---x-7---x---x-7---l
E--3-----------------------------5---x---x---5---x-5---x---x-5---l

e--3-------------------------x--x-----x-------------------x--x-----x----l
B--3--8--8\3--5--5\77----5--x--x--5--x-5---------------7-x--x--7--x--7-l
G--4--9--9\4--5--5\77----5--x--x--5--x-5---------5-----7-x--x--7--x--7-l
D--5----------------------5--x--x--5--x-5---------5-----7-x--x--7--x--7-l
A--5----------------------3--x--x--3--x-3--3-3-5\7--7---5-x--x--5--x--5-l
E--3-------------------------x--x-----x-------------------x--x-----x----l

e-----x--x-----x--------------------x--x----x---------------l
B--5--x--x--5--x-5---------------7--x--x----x-----7-7-------l
G--5--x--x--5--x-5---------5-----7--x--x-7--x-----7-7-------l
D--5--x--x--5--x-5---------5-----7--x--x-7--x--7\9---9-9-7--l
A--3--x--x--3--x-3--3-3-5\7--7---5--x--x-5--x---------------l
E-----x--x-----x--------------------x--x----x---------------l

e--3--------------------------3------------------------l
B--3--8--8\3--5--5\77--------3--8--8\3--5--5\7--7-----l
G--4--9--9\4--5--5\77--------4--9--9\4--5--5\7--7-----l
D--5--------------------------5------------------------l
A--5--------------------------5------------------------l
E--3--------------------------3------------------------l

e-----------------------------------------------------------l
B-----------------------------------------------------------l
G-------4---------------------------4-----------------------l
D---5-5--5--0-----------4-----5-5--5--0-----------4---------l    x2
A----------------3-3\5-5--5----------------3-3\5-5----------l
E-----------------------------------------------------------l

e---3--x--x--3--x--8--x--x--7\5--3--l
B---3--x--x--3--x--8--x--x--7\5--3--l
G---4--x--x--4--x--9--x--x--7\5--4--l
D---5--x--x--5--x-10--x--x--7\5--5--l
A---5--x--x--5--x-10--x--x--9\7--5--l
E---3--x--x--3--x--8--x--x--7\5--3--l





Comments


Popular Jack Johnson tabs & chords
Enemy Bass Tabs
Better Together Chords
Middle Man Chords
My Little Girl 5 Chords
The News Chords
You And Your Heart 5 Chords
Crying Shame Tabs
No Other Way 2 Tabs
Times Like These Tabs
Upside Down 5 Tabs


Song lyrics



↑ Back to top | Tablatures and chords are parodies/interpretations of the original songs. You may use it for private study, scholarship, research or language learning purposes only
© 2014 AZChords.com Contact us | Privacy policy | DMCA | Add/correct tabs | Request tabs | Top 50 tabs