» » »

Dreams Be Dreams Tabs (ver.1)

Artists:  A B C D E F G H I J K L M N O P Q R S T U V W X Y Z # 

Dreams Be Dreams Tabs (ver.1)

Jack Johnson
Rating:
0/5 (0 votes)

Hard to play? Try these video lessons and learn fast.
                Jack Johnson
On and On

Intro		    
e--7/10--\7--5/7\5-| 
b--7/10--\7--5/7\5-|
g------------------|
d------------------|
a------------------|
e------------------|

Verse Break
e--7----7----------|
b--7h10-7--7---7---|
g----------7h9-7---|
d----------------9-|
a------------------|
e------------------|

Transition
e------------------------------------------------
b------------------------------------------------
g--7---7-----------------------------------------
d--7h9-7h9-7-------------------------------------
a------------9-7------0--------------------------
e----------------10-7----------------------------

Verse 
|-----------------------------------|
|-----------------------------------|
|-----------------------------------|
|----4-------0-------------------0--|
|--5-----0-2----0---2---0-----4-----|
|-----------------3-------3/5-------|

Chorus 
|-------------------------------------------------|
|-------------------------------------------------|
|-------------------------------------------------|
|----4-4--4--0---0-0--0---------------------------|
|--5---5-------2---2-----0---2-2--2--0—2/4-4---4--|
|--------------------------3---3-------3/5---5----|

(play verse break 3 times again and then play transition into solo)
Solo
e------------------------------------------
b--------------7---7-----------------------
g----------7---7h9-7---7---7---------------
d------7h9---9-------9-7h9-7---------------
a--/7--------------------------------------
e------------------------------------------

e--------------7----7----------------------------
b--------------7h10-7-7-7-0----------------------
g----------7----------9-7-0----------------------
d------7h9---9-----------------------------------
a--/7--------------------------------------------
e------------------------------------------------
            
Hard to play? Try these video lessons and learn fast. | Correct




comments powered by Disqus
↑ Back to top | Tablatures and chords are parodies/interpretations of the original songs. You may use it for private study, scholarship, research or language learning purposes only