» » »

Jack Johnson, Better Together Tabs (ver.4)

Artists:  A B C D E F G H I J K L M N O P Q R S T U V W X Y Z # 

Better Together Tabs (ver.4)

Jack Johnson Tabs
Rating:
1/5 (127 votes)
Better Together lessons Tabs too difficult? Try these video lessons and learn fast
                Jack Johnson – Better Together

Intro:
e-------------------------------------------------------------------|
B-------------------------------------------------------------------|
G-------12-12\10-10-10\7-7-7\5-5-5/7-7-7/10-10-10/12-12-12\10-10----|
D-10/12----12\10----10\7---7\5---5/7---7/10----10/12----12\10----10-|
A-------------------------------------------------------------------|
E-------------------------------------------------------------------|
Verse:
e------x--------x------x------x------6------x------x-------x-|
B---10-10----10-x----6-x----5-x----6-6----6-x----3-x----8--x-|
G---10-10----10-x----7-x----5-x----7-7----7-x----3-x----9--x-|
D---10-10----10-x----7-x----5-x----8-8----8-x----5-x----10-x-|
A-8----8---7----x--5---x--3---x------8------x------x-------x-|
E------x--------x------x------x--6---6--5---x--3---x--8----x-|
  D U  D   D U  D  D U D  D U D  D U D  D U D  D U D  D U  D 

e------x--------x------x------x------6------x------x-------x-|
B---10-10----10-x----6-x----5-x----6-6----6-x----3-x----8--x-|
G---10-10----10-x----7-x----5-x----7-7----7-x----3-x----9--x-|
D---10-10----10-x----7-x----5-x----8-8----8-x----5-x----10-x-|
A-8----8---7----x--5---x--3---x------8------x------x-------x-|
E------x--------x------x------x--6---6--5---x--3---x--8----x-|
  D U  D   D U  D  D U D  D U D  D U D  D U D  D U D  D U  D 

e------x--------x------x------x------6------x------x-------x-|
B---10-10----10-x----6-x----5-x----6-6----6-x----3-x----8--x-|
G---10-10----10-x----7-x----5-x----7-7----7-x----3-x----9--x-|
D---10-10----10-x----7-x----5-x----8-8----8-x----5-x----10-x-|
A-8----8---7----x--5---x--3---x------8------x------x-------x-|
E------x--------x------x------x--6---6--5---x--3---x--8----x-|
  D U  D   D U  D  D U D  D U D  D U D  D U D  D U D  D U  D 

e------x--------x------x------x------6------x------x-------x-|
B---10-10----10-x----6-x----5-x----6-6----6-x----3-x----8--x-|
G---10-10----10-x----7-x----5-x----7-7----7-x----3-x----9--x-|
D---10-10----10-x----7-x----5-x----8-8----8-x----5-x----10-x-|
A-8----8---7----x--5---x--3---x------8------x------x-------x-|
E------x--------x------x------x--6---6--5---x--3---x--8----x-|
  D U  D   D U  D  D U D  D U D  D U D  D U D  D U D  D U  D  

Chorus:
e-7\6-6-x-----6-x-------8--x-------8--x-|
B-7\6-6-x---6-6-x----8--8--x----8--8--x-|
G-8\7-7-x---7-7-x----9--9--x----9--9--x-|
D-9\8-8-x---8-8-x----10-10-x----10-10-x-|
A-9\8-8-x-----8-x-------10-x-------10-x-|
E-7\6-6-x-6---6-x--8----8--x--8----8--x-|
  D   D U D U D U  D U  D  U  D U  D  U

e-7\6-6-x-----6-x-------8--x-------8--x-|
B-7\6-6-x---6-6-x----8--8--x----8--8--x-|
G-8\7-7-x---7-7-x----9--9--x----9--9--x-|
D-9\8-8-x---8-8-x----10-10-x----10-10-x-|
A-9\8-8-x-----8-x-------10-x-------10-x-|
E-7\6-6-x-6---6-x--8----8--x--8----8--x-|
  D   D U D U D U  D U  D  U  D U  D  U

e-7\6-6-x-----6-x-------8--x-------8--x-|
B-7\6-6-x---6-6-x----8--8--x----8--8--x-|
G-8\7-7-x---7-7-x----9--9--x----9--9--x-|
D-9\8-8-x---8-8-x----10-10-x----10-10-x-|
A-9\8-8-x-----8-x-------10-x-------10-x-|
E-7\6-6-x-6---6-x--8----8--x--8----8--x-|
  D   D U D U D U  D U  D  U  D U  D  U

e-7\6-6-x-----6-x-------8--x-------8--x-|
B-7\6-6-x---6-6-x----8--8--x----8--8--x-|
G-8\7-7-x---7-7-x----9--9--x----9--9--x-|
D-9\8-8-x---8-8-x----10-10-x----10-10-x-|
A-9\8-8-x-----8-x-------10-x-------10-x-|
E-7\6-6-x-6---6-x--8----8--x--8----8--x-|
  D   D U D U D U  D U  D  U  D U  D  U

Bridge 1:
e------x--------x------x------x------6------x------x-------x-|
B---10-10----10-x----6-x----5-x----6-6----6-x----3-x----8--x-|
G---10-10----10-x----7-x----5-x----7-7----7-x----3-x----9--x-|
D---10-10----10-x----7-x----5-x----8-8----8-x----5-x----10-x-|
A-8----8---7----x--5---x--3---x------8------x------x-------x-|
E------x--------x------x------x--6---6--5---x--3---x--8----x-|
  D U  D   D U  D  D U D  D U D  D U D  D U D  D U D  D U  D 

e------x--------x------x------x------6------x------x-------x-|
B---10-10----10-x----6-x----5-x----6-6----6-x----3-x----8--x-|
G---10-10----10-x----7-x----5-x----7-7----7-x----3-x----9--x-|
D---10-10----10-x----7-x----5-x----8-8----8-x----5-x----10-x-|
A-8----8---7----x--5---x--3---x------8------x------x-------x-|
E------x--------x------x------x--6---6--5---x--3---x--8----x-|
  D U  D   D U  D  D U D  D U D  D U D  D U D  D U D  D U  D 

Verse:
e------x--------x------x------x------6------x------x-------x-|
B---10-10----10-x----6-x----5-x----6-6----6-x----3-x----8--x-|
G---10-10----10-x----7-x----5-x----7-7----7-x----3-x----9--x-|
D---10-10----10-x----7-x----5-x----8-8----8-x----5-x----10-x-|
A-8----8---7----x--5---x--3---x------8------x------x-------x-|
E------x--------x------x------x--6---6--5---x--3---x--8----x-|
  D U  D   D U  D  D U D  D U D  D U D  D U D  D U D  D U  D 

e------x--------x------x------x------6------x------x-------x-|
B---10-10----10-x----6-x----5-x----6-6----6-x----3-x----8--x-|
G---10-10----10-x----7-x----5-x----7-7----7-x----3-x----9--x-|
D---10-10----10-x----7-x----5-x----8-8----8-x----5-x----10-x-|
A-8----8---7----x--5---x--3---x------8------x------x-------x-|
E------x--------x------x------x--6---6--5---x--3---x--8----x-|
  D U  D   D U  D  D U D  D U D  D U D  D U D  D U D  D U  D 


e------x--------x------x------x------6------x------x-------x-|
B---10-10----10-x----6-x----5-x----6-6----6-x----3-x----8--x-|
G---10-10----10-x----7-x----5-x----7-7----7-x----3-x----9--x-|
D---10-10----10-x----7-x----5-x----8-8----8-x----5-x----10-x-|
A-8----8---7----x--5---x--3---x------8------x------x-------x-|
E------x--------x------x------x--6---6--5---x--3---x--8----x-|
  D U  D   D U  D  D U D  D U D  D U D  D U D  D U D  D U  D 

e------x--------x------x------x------6------x------x-------x-|
B---10-10----10-x----6-x----5-x----6-6----6-x----3-x----8--x-|
G---10-10----10-x----7-x----5-x----7-7----7-x----3-x----9--x-|
D---10-10----10-x----7-x----5-x----8-8----8-x----5-x----10-x-|
A-8----8---7----x--5---x--3---x------8------x------x-------x-|
E------x--------x------x------x--6---6--5---x--3---x--8----x-|
  D U  D   D U  D  D U D  D U D  D U D  D U D  D U D  D U  D  

Chorus:
e-7\6-6-x-----6-x-------8--x-------8--x-|
B-7\6-6-x---6-6-x----8--8--x----8--8--x-|
G-8\7-7-x---7-7-x----9--9--x----9--9--x-|
D-9\8-8-x---8-8-x----10-10-x----10-10-x-|
A-9\8-8-x-----8-x-------10-x-------10-x-|
E-7\6-6-x-6---6-x--8----8--x--8----8--x-|
  D   D U D U D U  D U  D  U  D U  D  U

e-7\6-6-x-----6-x-------8--x-------8--x-|
B-7\6-6-x---6-6-x----8--8--x----8--8--x-|
G-8\7-7-x---7-7-x----9--9--x----9--9--x-|
D-9\8-8-x---8-8-x----10-10-x----10-10-x-|
A-9\8-8-x-----8-x-------10-x-------10-x-|
E-7\6-6-x-6---6-x--8----8--x--8----8--x-|
  D   D U D U D U  D U  D  U  D U  D  U

e-7\6-6-x-----6-x-------8--x-------8--x-|
B-7\6-6-x---6-6-x----8--8--x----8--8--x-|
G-8\7-7-x---7-7-x----9--9--x----9--9--x-|
D-9\8-8-x---8-8-x----10-10-x----10-10-x-|
A-9\8-8-x-----8-x-------10-x-------10-x-|
E-7\6-6-x-6---6-x--8----8--x--8----8--x-|
  D   D U D U D U  D U  D  U  D U  D  U

e-7\6-6-x-----6-x-------8--x-------8--x-|
B-7\6-6-x---6-6-x----8--8--x----8--8--x-|
G-8\7-7-x---7-7-x----9--9--x----9--9--x-|
D-9\8-8-x---8-8-x----10-10-x----10-10-x-|
A-9\8-8-x-----8-x-------10-x-------10-x-|
E-7\6-6-x-6---6-x--8----8--x--8----8--x-|
  D   D U D U D U  D U  D  U  D U  D  U

Bridge 1:
e------x--------x------x------x------6------x------x-------x-|
B---10-10----10-x----6-x----5-x----6-6----6-x----3-x----8--x-|
G---10-10----10-x----7-x----5-x----7-7----7-x----3-x----9--x-|
D---10-10----10-x----7-x----5-x----8-8----8-x----5-x----10-x-|
A-8----8---7----x--5---x--3---x------8------x------x-------x-|
E------x--------x------x------x--6---6--5---x--3---x--8----x-|
  D U  D   D U  D  D U D  D U D  D U D  D U D  D U D  D U  D 

e------x--------x------x------x------6------x------x-------x-|
B---10-10----10-x----6-x----5-x----6-6----6-x----3-x----8--x-|
G---10-10----10-x----7-x----5-x----7-7----7-x----3-x----9--x-|
D---10-10----10-x----7-x----5-x----8-8----8-x----5-x----10-x-|
A-8----8---7----x--5---x--3---x------8------x------x-------x-|
E------x--------x------x------x--6---6--5---x--3---x--8----x-|
  D U  D   D U  D  D U D  D U D  D U D  D U D  D U D  D U  D 

Verse:
e------x--------x------x------x------6------x------x-------x-|
B---10-10----10-x----6-x----5-x----6-6----6-x----3-x----8--x-|
G---10-10----10-x----7-x----5-x----7-7----7-x----3-x----9--x-|
D---10-10----10-x----7-x----5-x----8-8----8-x----5-x----10-x-|
A-8----8---7----x--5---x--3---x------8------x------x-------x-|
E------x--------x------x------x--6---6--5---x--3---x--8----x-|
  D U  D   D U  D  D U D  D U D  D U D  D U D  D U D  D U  D 

e------x--------x------x------x------6------x------x-------x-|
B---10-10----10-x----6-x----5-x----6-6----6-x----3-x----8--x-|
G---10-10----10-x----7-x----5-x----7-7----7-x----3-x----9--x-|
D---10-10----10-x----7-x----5-x----8-8----8-x----5-x----10-x-|
A-8----8---7----x--5---x--3---x------8------x------x-------x-|
E------x--------x------x------x--6---6--5---x--3---x--8----x-|
  D U  D   D U  D  D U D  D U D  D U D  D U D  D U D  D U  D 


e------x--------x------x------x------6------x------x-------x-|
B---10-10----10-x----6-x----5-x----6-6----6-x----3-x----8--x-|
G---10-10----10-x----7-x----5-x----7-7----7-x----3-x----9--x-|
D---10-10----10-x----7-x----5-x----8-8----8-x----5-x----10-x-|
A-8----8---7----x--5---x--3---x------8------x------x-------x-|
E------x--------x------x------x--6---6--5---x--3---x--8----x-|
  D U  D   D U  D  D U D  D U D  D U D  D U D  D U D  D U  D 

e------x--------x------x------x------6------x------x-------x-|
B---10-10----10-x----6-x----5-x----6-6----6-x----3-x----8--x-|
G---10-10----10-x----7-x----5-x----7-7----7-x----3-x----9--x-|
D---10-10----10-x----7-x----5-x----8-8----8-x----5-x----10-x-|
A-8----8---7----x--5---x--3---x------8------x------x-------x-|
E------x--------x------x------x--6---6--5---x--3---x--8----x-|
  D U  D   D U  D  D U D  D U D  D U D  D U D  D U D  D U  D  
            

comments powered by Disqus
↑ Back to top | Jack Johnson Tabs for Better Together. Lyrics for acoustic guitar and electric guitar. Tablatures and chords are parodies/interpretations of the original songs. You may use it for private study, scholarship, research or language learning purposes only