» » »

Jack Johnson, Better Together Chords (ver.1)

Artists:  A B C D E F G H I J K L M N O P Q R S T U V W X Y Z # 

Better Together Chords (ver.1)

Jack Johnson Tabs
Rating:
4/5 (3 votes)
Hard to play? Try these video lessons and learn fast.
                Song - Better Together
Artist - Jack Johnson

Standard Tuning.
Capo 3.

I can't take all the credit for this due to I got it from many diffrent tabs and 
brother did the piano bit.
Hope you enjoy playing.

   D      D^     Bm     A      G    D/F#    Em      A*    Ab*     G*

e|-2-| e|-2-| e|-2-| e|-0-| e|-3-| e|-2-| e|-0-| e|-5-| e|-4-| e|-3-| 
B|-3-| B|-3-| B|-3-| B|-2-| B|-3-| B|-3-| B|-0-| B|-5-| B|-4-| B|-3-| 
G|-2-| G|-2-| G|-4-| G|-2-| G|-0-| G|-2-| G|-0-| G|-6-| G|-5-| G|-4-| 
D|-0-| D|-0-| D|-4-| D|-2-| D|-0-| D|-X-| D|-2-| D|-7-| D|-6-| D|-5-| 
A|-X-| A|-4-| A|-2-| A|-0-| A|-2-| A|-X-| A|-2-| A|-7-| A|-6-| A|-5-| 
E|-X-| E|-X-| E|-X-| E|-X-| E|-3-| E|-2-| E|-0-| E|-5-| E|-4-| E|-3-| 


Intro riff, in corrilation with the capo 3:
(/= Slide)

e|-------------------------------------------------------|
B|-------------------------------------------------------|
G|-----9-----7-----4-----2-----4-----7-----9-----7-------|
D|-7/9---9/7---7/4---4/2---2/4---4/7---7/9---9/7---7--0--|
A|-------------------------------------------------------|
E|-------------------------------------------------------|



D              D^
There's no combination of words
        Bm                   A
I could put on the back of a postcard
G            D/F#
No song that I could sing
    Em            A*
But I can try for your heart
D   D^                    Bm               A
Our dreams, and they are made out of real things
        G          D/F#
Like a, shoebox of photographs
      Em       A*
With sepiatone loving
D           D^
Love is the answer,
             Bm                       A
At least for most of the questions in my heart
    G          D/F#                   Em
Like why are we here? And where do we go?
                      A*
And how come it's so hard?
D               D^
It's not always easy and
           Bm           A
Sometimes life can be deceiving
G                  D/F#              Em                  A*          Ab*
I'll tell you one thing it's always better when we're together



[Chorus:]
G*                A*                     Ab* G*
MMM it's always better when we're together
                         A*                     Ab* G*
Yeah, we'll look at the stars when we're together
                    A*                     Ab* G*
Well, it's always better when we're together
                    A* (hold)
Yeah, it's always better when we're together


Piano piece, in corrilation with capo 3:

e|----5---5---2---0---------|
B|---7---7---3---2----3---2-|
G|--7---6---4---2----4---2--| (x2)
D|------------------4---4---|
A|--------------------------|
E|--------------------------|

Chords during piano piece: D D^ Bm A G D/F# Em A* (x2)


D                 D^
And all of these moments
                                   Bm      A
Just might find their way into my dreams tonight
       G                    D/F#
But I know that they'll be gone
           Em            A*
When the morning light sings
     D          D^
And brings new things
      Bm                A
For tomorrow night you see
      G              D/F#
That they'll be gone too
           Em             A*
Too many things I have to do
                    D                        D^
But if all of these dreams might find their way
         Bm          A
Into my day to day scene
         G          D/F#
I'd be under the impression
       Em              A*
I was somewhere in between
            D
With only two
             D^
Just me and you
             Bm               A
Not so many things we got to do
     G             D/F#
Or places we got to be 
           Em                     A*  Ab*
We'll Sit beneath the mango tree now


G*            A*                     Ab* G*
It's always better when we're together
              A*                        Ab* G*
Mmmm, we're somewhere in between together
                   A*                      Ab* G*
Well, it's always better when we're together
                   A*(hold)                    
Yeah, it's always better when we're together



Piano piece, in corrilation with capo 3:

e|----5---5---2---0---------|
B|---7---7---3---2----3---2-|
G|--7---6---4---2----4---2--| (x2)
D|------------------4---4---|
A|--------------------------|
E|--------------------------|

Chords during piano piece: D D^ Bm A G D/F# Em A* (x2)


G*
MMmmmm MMMmmmm Mmmmmm
              A*
I believe in memories
             G*                  A*
They look so, so pretty when I sleep
        G*          A*
Hey now, and when I wake up,
              G*                     A*
You look so pretty sleeping next to me
             G*           A*
But there is not enough time,
             G*                   A*
And there is no, no song I could sing
             G*                  A*
And there is no, combination of words I could say
             G*                 A* (hold)
But I will still tell you one thing

We're better together.


Repeat intro riff, in corrilation with the capo 3:

e|-------------------------------------------------------|
B|-------------------------------------------------------|
G|-----9-----7-----4-----2-----4-----7-----9-----7-------|
D|-7/9---9/7---7/4---4/2---2/4---4/7---7/9---9/7---7--0--|
A|-------------------------------------------------------|
E|-------------------------------------------------------|

Ending Riff, in corrilation with capo 3:

e|------10------7-----5-----7------10-------12-------10------7-------|
B|-7/10----10/7---7/5---5/7---7/10----10/12----12/10----10/7---7/4/7-|
G|-------------------------------------------------------------------|
D|-------------------------------------------------------------------|
A|-------------------------------------------------------------------|
E|-------------------------------------------------------------------|
            

comments powered by Disqus
↑ Back to top | Jack Johnson Chords for Better Together. Lyrics for acoustic guitar and electric guitar. Tablatures and chords are parodies/interpretations of the original songs. You may use it for private study, scholarship, research or language learning purposes only