» » »

Jackass, Party Boy Tabs (ver.3)

Artists:  A B C D E F G H I J K L M N O P Q R S T U V W X Y Z # 

Party Boy Tabs (ver.3)

Jackass Tabs
Rating:
0/5 (0 votes)
Party Boy lessons Tabs too difficult? Try these video lessons and learn fast
                This is the bass part at the begining
to get the right sort of sound use
a wah pedal on each note


|-----------------------------------------------------------------|
|-----------------------------------------------------------------|
|-----------------------------------------------------------------|
|-----------------------------------------------------------2---3-|
|-----------------------------------------------------------------|
|-3---3---3---3---3---3---3---1---3---3---3---3---3---3---3---3---|



|-----------------------------------------------------------------|
|-----------------------------------------------------------------|
|-----------------------------------------------------------------|
|---------------------------------------------------2---3---4---5-|
|-----------------------------------------------------------------|
|-3---3---3---3---3---3---3---1---3---3---3---3---3---3---3---3---|

 Basically that is all the bass does until later on in the song where it plays

|---------------------------------|
|---------------------------------|
|---------------------------------|
|---2---3---4---5---2---3---4---5-|
|---------------------------------|
|-3---3---3---3---3---3---3---3---|




The synth part is

|-3~~-3-3-3----3---3-3-|-1~~-1-1-1------------|
|-3~~-3-3-3----3---3-3-|-1~~-1-1-1------------|
|-3~~-3-3-3----3---3-3-|-1~~-1-1-1------------|
|-5~~-5-5-5----5---5-5-|-3~~-3-3-3------------|
|----------------------|----------------------|
|----------------------|----------------------|


 Then there is a part where there actually is a guitar in it and it just
 plays a load of muted note while being on wah.
Use the first note and then every 4 notes after that
i have put a w underneath to show you where to do it
|-x-x-x-x-x-x-x-x-x-x-x-x-x-x-x-x-x-x-x-x-|
|-x-x-x-x-x-x-x-x-x-x-x-x-x-x-x-x-x-x-x-x-|
|-x-x-x-x-x-x-x-x-x-x-x-x-x-x-x-x-x-x-x-x-|
|-x-x-x-x-x-x-x-x-x-x-x-x-x-x-x-x-x-x-x-x-|
|-----------------------------------------|
|-----------------------------------------|
  w       w       w       w       w


and that is about it,
thanks for looking at my tab
please rate and comment
party on!
            

comments powered by Disqus
↑ Back to top | Jackass Tabs for Party Boy. Lyrics for acoustic guitar and electric guitar. Tablatures and chords are parodies/interpretations of the original songs. You may use it for private study, scholarship, research or language learning purposes only