» » »

Back In Town Bass tabs (ver.1)

Artists:  A B C D E F G H I J K L M N O P Q R S T U V W X Y Z # 

Back In Town Bass tabs (ver.1)

Izia
Rating:
0/5 (0 votes)

Hard to play? Try these video lessons and learn fast.
                Artiste: Izia
Titre: Back In Town
Tableur:4ary4
Acordage standard EADG

Intro et couplets:

G[----------------|----------------|----------------|----------------|]
D[----------------|----------------|----------------|----------------|] *8
A[----------------|----------------|----------------|--------5-------|]
E[5-5-5-----------|3-3-3-----------|2-2-2-----------|1-1-1--0--------|]

refrain:

G[----------------|----------------|----------------|----------------|]
D[----------------|----------------|----------------|-----------57---|]
A[5-------5---7---|8------8----8---|0-------0------0|4---5---7-------|]
E[----------------|----------------|----------------|----------------|]

G[----------------|----------------|----------------|--------5-------|]
D[----------------|----------------|----------------|----5-7---5-7---|]
A[5-------5---7---|8------8----8---|0-------0------0|5-7-----------7-|]
E[----------------|----------------|----------------|----------------|]
                                              
G[----------------|----------------|------12-14-----|----------12----|]
D[----------------|----------------|--14------------|------1214--1214|]
A[5-------5---7---|8------8----8---|12--------------|15--------------|]
E[----------------|----------------|----------------|----------------|]

G[----------------|
D[----------------|
A[12--------------|
E[----------------|

Couplet

Refrain

Transition en fin de refrain:

G[----------------|----------------|--------------5-|----------75----|]
D[----------------|----------------|----------2-5---|--4-5-6-7----75-|]
A[----------------|----------------|2-2-2-225-------|5--------------8|]
E[0-0-0-0-0-0-0-0-|3-3-3-3-3-3-3-3-|----------------|----------------|]



G[----------------|----------------|----------------|----------------|]
D[----------------|----------------|----------------|----------------|]
A[----------------|----------------|----------------|----------------|]
E[5---5-----------|5---5-----------|5---5-----------|5---5-----------|]
            
Hard to play? Try these video lessons and learn fast. | Correct




comments powered by Disqus
↑ Back to top | Tablatures and chords are parodies/interpretations of the original songs. You may use it for private study, scholarship, research or language learning purposes only