» » »

Izia, Back In Town Tabs (ver.1)

Artists:  A B C D E F G H I J K L M N O P Q R S T U V W X Y Z # 

Back In Town Tabs (ver.1)

Izia Tabs
 Rating:
4/5 (6 votes)
Back In Town lessons Tabs too difficult? Try these video lessons and learn fast
                -------------------------------------------------------------------------------
-------------------------------------------------------------------------------

Tuning: EADGBE

Soft Dist. while introducing, and then fat dist.

INTRO
e|---------------------------------------|
B|--14---------------2h3--------x-x---3--|
G|--14--------------------------------2--|
D|--12--------------------------------0--|
A|--12/-------------------------------0--|
E|-----12/3---(3)(3)----(2)(2)-----------|

e|----------------------------------------------|
B|-----2h3p2----------2h3p2------------2-----3--|
G|----2-----2--------------2-----------2-----2--|
D|-------------------------------------------0--|
A|-(0)---------------------------------------0--|
E|------------0-(3)(3)-------0--(2)(2)---0------|


VERSE  x3
e|----------------------------------------|
B|--2-2-2---2-2-2---2-2-2---2-2-2---------|
G|--2-2-2---2-2-2---2-2-2---2-2-2------7--|
D|--2-2-2---2-2-2---2-2-2---2-2-2------7--|
A|--0-0-0---x-x-x---x-x-x---x-x-x---x--5--|
E|--x-x-x---3-3-3---2-2-2---1-1-1---x-----|

{{{{ x1
VERSE  x3
e|----------------------------------------|
B|--2-2-2---2-2-2---2-2-2---2-2-2---------|
G|--2-2-2---2-2-2---2-2-2---2-2-2---------| 
D|--2-2-2---2-2-2---2-2-2---2-2-2------5--|
A|--0-0-0---x-x-x---x-x-x---x-x-x---x--5--|
E|--x-x-x---3-3-3---2-2-2---1-1-1---x--3--|

During 4th repetition, add these notes
e|---------------5------------------------|
B|---------------5------------------------|
G|-------4bf------------------------------|
D|----------------------------------------|
A|----------------------------------------|
E|----------------------------------------| }}}}

CHORUS
x1
e|------------------------|
B|------------------------|
G|--7-7-7/10-10------4-4--|
D|--7-7-7/10-10--7-7-7-7--|
A|--5-5-5/8--8---7-7-7-7--|
E|---------------5-5-x-x--|
x1
e|----------------------------------|
B|----------------------------------|
G|--7-7-7/10-10---------------------|
D|--7-7-7/10-10--7---------2-4-2----|
A|--5-5-5/8--8---7-----2-4------4-0-|
E|---------------5--/5--------------|
x1
e|------------------------------------------------|
B|------------------------------------------------|
G|--7-7-7/10-10------4-4----7/10--4------------5b-|
D|--7-7-7/10-10--7-7-7-7----7/10--7------5-7-5----|
A|--5-5-5/8--8---7-7-7-7----5/8---7--5h7----------|
E|---------------5-5-x-x----------5---------------|



2nd VERSE (Same as the first one)
x3
e|----------------------------------------|
B|--2-2-2---2-2-2---2-2-2---2-2-2---------|
G|--2-2-2---2-2-2---2-2-2---2-2-2------7b-|
D|--2-2-2---2-2-2---2-2-2---2-2-2------7b-|
A|--0-0-0---x-x-x---x-x-x---x-x-x---x--5--|
E|--x-x-x---3-3-3---2-2-2---1-1-1---x-----|

{{{{ x1
VERSE  x3
e|----------------------------------------|
B|--2-2-2---2-2-2---2-2-2---2-2-2---------|
G|--2-2-2---2-2-2---2-2-2---2-2-2---------| AND THEN CHORUS
D|--2-2-2---2-2-2---2-2-2---2-2-2------5--|
A|--0-0-0---x-x-x---x-x-x---x-x-x---x--5--|
E|--x-x-x---3-3-3---2-2-2---1-1-1---x--3--|


During 4th repetition, add these notes
e|---------------5------------------------|
B|---------------5------------------------|
G|-------4bf------------------------------|
D|----------------------------------------|
A|----------------------------------------|
E|----------------------------------------| }}}}


2nd CHORUS
x1
e|------------------------|
B|------------------------|
G|--7-7-7/10-10------4-4--|
D|--7-7-7/10-10--7-7-7-7--|
A|--5-5-5/8--8---7-7-7-7--|
E|---------------5-5-x-x--|
x1
e|-----------------------------------|
B|-----------------------------------|
G|--7-7-7/10-10----------------------|
D|--7-7-7/10-10--7---------2-4-2-----|
A|--5-5-5/8--8---7-----2-4------4-0--|
E|---------------5--/5---------------|
x1
e|-------------------------------------|
B|-------------------------------------|
G|--7-7-7/10-10------4-4----7-7/10~----|
D|--7-7-7/10-10--7-7-7-7----7-7/10~----|
A|--5-5-5/8--8---7-7-7-7----5-5/8~-----|
E|---------------5-5-x-x---------------|

 |---------------------------------------------------|
 |---------------------------------------------------|
 |--9-9-9-9-9-9/12-12-12-12-12-----------------------|
 |--9-9-9-9-9-9/12-12-12-12-12----9-9-9-9-9/12-12/14-|
 |--7-7-7-7-7-7/10-10-10-10-10----9-9-9-9-9/12-12/14-|
 |--------------------------------7-7-7-7-7/10-10/12-|

Then Vocals and Guitar solo (Which will not be tabbed here for the moment)

Thank you for reading!

Have fun and check Izia's songs, a french band that really rocks.

| /  slide up
| \  slide down
| h  hammer-on
| p  pull-off
| ~  vibrato
| +  harmonic
| x  Mute note
===============================================================================
            
Submit corrections

comments powered by Disqus
↑ Back to top | Izia Tabs for Back In Town. Lyrics for acoustic guitar and electric guitar. Tablatures and chords are parodies/interpretations of the original songs. You may use it for private study, scholarship, research or language learning purposes only