» » »

Ivoryline, Vessels Bass tabs (ver.1)

Artists:  A B C D E F G H I J K L M N O P Q R S T U V W X Y Z # 

Vessels Bass tabs (ver.1)

Ivoryline Tabs
Rating:
5/5 (1 vote)
Vessels lessons Tabs too difficult? Try these video lessons and learn fast
                -------------------------------------------------------------------------------
-------------------------------------------------------------------------------


Tuning: Drop D

  Intro
G|-------------------------------------------------------------------------|
D|-------------------------------------------------------------------------|
A|-------------------------------------------------------------------------|
D|-8-8-8-8-8-8-8-8-10-10-10-10-10-10-10-10-5-5-5-5-5-5-5-5-8-8-8-8-8-8-8-8-|
  Verse I
G|-------------------------------------------------------------------|
D|-------------------------------------------------------------------|
A|-8p5---8p5---8p5---8p5---8p5-8p5---8p5---8p5---8p5---8p5---8p5-8p5-|
D|-------------------------------------------------------------------|x4
  Pre-Chorus
G|-----------------------------------------|
D|-----------------------------------------|
A|-----------------------------------------|
D|-8-8-8-8-8-8-8-8-10-10-10-10-10-10-10-10-|
  Chorus
G|------------------------------------------------------------------------------|
D|------------------------------------------------------------------------------|
A|------------------------------------------------------------------------------|
D|-0-0-0-0---000-0-0-0---0-0-0-0---000-0-0-0---88888888888888883333333355555555-|x2
  Post-Chorus
G|----------------------------------------------------------------------------|
D|----------------------------------------------------------------------------|
A|--------------------------------------8h10---8h10---8h10---8h10---8h10-8h10-|
D|-3p0--0h50-------0---0h5p0--3p0---------------------------------------------|
  Verse II
G|-------------------------------------------------------------------|
D|-------------------------------------------------------------------|
A|-8p5---8p5---8p5---8p5---8p5-8p5---8p5---8p5---8p5---8p5---8p5-8p5-|
D|-------------------------------------------------------------------|

G|---------------------------------------------------------------------------------|
D|---------------------------------------------------------------------------------|
A|-8h10---8h10---8h10---8h10----8h10-8h10---8h10---8h10---8h10---8h10----8h10-8h10-|
D|---------------------------------------------------------------------------------|

G|---------------------------------|
D|---------------------------------|
A|-8p5---8p5---8p5---8p5---8p5-8p5-|
D|---------------------------------|
  Pre-Chorus
G|-----------------------------------------|
D|-----------------------------------------|
A|-----------------------------------------|
D|-8-8-8-8-8-8-8-8-10-10-10-10-10-10-10-10-|
  Chorus
G|------------------------------------------------------------------------------|
D|------------------------------------------------------------------------------|
A|------------------------------------------------------------------------------|
D|-0-0-0-0---000-0-0-0---0-0-0-0---000-0-0-0---88888888888888883333333355555555-|x2
  Bridge
G|-------------------------------------------------------------------------|
D|-------------------------------------------------------------------------|
A|-------------------------------------------------------------------------|
D|-8-8-8-8-8-8-8-8-10-10-10-10-10-10-10-10-5-5-5-5-5-5-5-5-8-8-8-8-8-8-8-8-|x2
  Chorus
G|----------------------------------|
D|----------------------------------|
A|----------------------------------|
D|-88888888888888883333333355555555-|

G|------------------------------------------------------------------------------|
D|------------------------------------------------------------------------------|
A|------------------------------------------------------------------------------|
D|-0-0-0-0---000-0-0-0---0-0-0-0---000-0-0-0---88888888888888883333333355555555-|

G|-------------------------------------------|
D|-------------------------------------------|
A|-------------------------------------------|
D|-0-0-0-0---000-0-0-0---0-0-0-0---000-0-0-0-|

| /  slide up
| \  slide down
| h  hammer-on
| p  pull-off
| ~  vibrato
| +  harmonic
| x  Mute note
===============================================================================
            

comments powered by Disqus
↑ Back to top | Ivoryline Bass for Vessels. Lyrics for acoustic guitar and electric guitar. Tablatures and chords are parodies/interpretations of the original songs. You may use it for private study, scholarship, research or language learning purposes only