>
 >
Vessels

Vessels Guitar Tabs

Ivoryline - Vessels chords, tabs, tablatures, lyrics

Guitar lessons | Add/correct | Request | Top 50 tabs Artists:  A B C D E F G H I J K L M N O P Q R S T U V W X Y Z 0-9

Vessels Guitar Tabs – Ivoryline

CD, Sheet music, Poster

Do you like Vessels? Share with your friends now
Bass TabsTabs
        Vessels

Genre: Rock
Info:
 ~ | Vibrato
 / | Slide Onto
 . | Palm Mute
 x | Fret Mute

_____________________________________________________________________________
Guitar 1:
(DADGBe)

        Intro:

> Dist with Delay
e|----------8------------8---------------------8------------8------------|
B|-----------------------------------------------------------------------|
G|-7-9-10-9-----7-9-10-9-----7-9-10-9-7-9-10-9-----7-9-10-9-----7-9-10-9-|
D|-----------------------------------------------------------------------|
A|-----------------------------------------------------------------------|
D|-----------------------------------------------------------------------|
 |
e|-------------13---------------13------------------------8------------8------------|
B|----------------------------------------------------------------------------------|
G|-12-14-15-14------12-14-15-14------12-14-15-14-7-9-10-9-----7-9-10-9-----7-9-10-9-|
D|----------------------------------------------------------------------------------|
A|----------------------------------------------------------------------------------|
D|----------------------------------------------------------------------------------|


        Verse:

> Tapping
e|-----------------------------------------------------------------|
B|-18-10-13-10-17------------------15-10-13-10-8-------------------|
G|-----------------------------------------------------------------|
D|-----------------------------------------------------------------|
A|-----------------------------------------------------------------|
D|-----------------------------------------------------------------|
 |
> Picking
e|-----------------------------------------------------------------|
B|-----------------------------------------------------------------|
G|-12--/7-10~----------------------12--/7-9~-----------------------|
D|-----------------------------------------------------------------|
A|-----------------------------------------------------------------|
D|-----------------------------------------------------------------|
 |
> Tapping
e|-----------------------------------------------------------------|
B|-18-10-13-10-17------------------15-10-13-10-8-------------------|
G|-----------------------------------------------------------------|
D|-----------------------------------------------------------------|
A|-----------------------------------------------------------------|
D|-----------------------------------------------------------------|
 |
> Picking
e|-----------------------------------------------------------------|
B|-----------------------------------------------------------------|
G|-12--/7-10~----------------------12--/7-9~-----------------------|
D|-----------------------------------------------------------------|
A|-----------------------------------------------------------------|
D|-----------------------------------------------------------------|


        Pre-Chorus:

e|-------------------------------------------------|
B|-10-10-10-10-10-10-10-10-10-10-10-10-10-10-10-10-|
G|-10-10-10-10-10-10-10-10-10-10-10-10-10-10-10-10-|
D|-------------------------------------------------|
A|-------------------------------------------------|
D|-------------------------------------------------|
 |
e|-------------------------------------------------|
B|-10-10-10-10-10-10-10-10-10-10-10-10-------------|
G|-9--9--9--9--9--9--9--9--9--9--9--9--------------|
D|-------------------------------------------------|
A|-------------------------------------------------|
D|-------------------------------------------------|


        Chorus:

> Tapping
e|-------------------------------------------------------------------------------------|
B|-------------------------------------------------------------------------------------|
G|-14-7-14-7-14-7-14-7-14-9-14-9-14-9-14-9-14-10-14-10-14-10-14-10-14-9-14-9-14-9-14-9-|
D|-------------------------------------------------------------------------------------|
A|-------------------------------------------------------------------------------------|
D|-------------------------------------------------------------------------------------|
 |                                            > Picking
e|----------------------------------------------------------------------------|
B|-15-10-8-10-15-10-8-10-15-10-8-10-8---10------------------------------------|
G|----------------------------------------------------------------------------|
D|--------------------------------------------3-3-3-3-3-3-3-3-5-5-5-5-5-5-5-5-|
A|--------------------------------------------3-3-3-3-3-3-3-3-5-5-5-5-5-5-5-5-|
D|--------------------------------------------3-3-3-3-3-3-3-3-5-5-5-5-5-5-5-5-|
 |
e|--------------------------------------------------------------------------------|
B|--------------------------------------------------------------------------------|
G|-7-7-7-7-7-7-7-7-7/9-9-9-9-9-9-9-9/10-10-10-10-10-10-10-10/12-12-12-12-12-12-12-|
D|--------------------------------------------------------------------------------|
A|--------------------------------------------------------------------------------|
D|--------------------------------------------------------------------------------|
 |
e|----------------------------------------------------------------------------|
B|-15-10-8-10-15-10-8-10-15-10-8-10-8---10------------------------------------|
G|----------------------------------------------------------------------------|
D|--------------------------------------------3-3-3-3-3-3-3-3-5-5-5-5-5-5-5-5-|
A|--------------------------------------------3-3-3-3-3-3-3-3-5-5-5-5-5-5-5-5-|
D|--------------------------------------------3-3-3-3-3-3-3-3-5-5-5-5-5-5-5-5-|


        Verse:

> Tapping and lots of delay
e|-----------------------------------------------------------------|
B|-18-10-13-10-17///---------------15-10-13-10-8///----------------|
G|-----------------------------------------------------------------|
D|-----------------------------------------------------------------|
A|-----------------------------------------------------------------|
D|-----------------------------------------------------------------|
 |
> Picking
e|-----------------------------------------------------------------|
B|-----------------------------------------------------------------|
G|-12--/7-10~----------------------12--/7-9~-----------------------|
D|-----------------------------------------------------------------|
A|-----------------------------------------------------------------|
D|-----------------------------------------------------------------|
 |
> Tapping
e|-----------------------------------------------------------------|
B|-18-10-13-10-17------------------15-10-13-10-8-------------------|
G|-----------------------------------------------------------------|
D|-----------------------------------------------------------------|
A|-----------------------------------------------------------------|
D|-----------------------------------------------------------------|
 |
> Picking
e|-----------------------------------------------------------------|
B|-----------------------------------------------------------------|
G|-12--/7-10~----------------------12--/7-9~-----------------------|
D|-----------------------------------------------------------------|
A|-----------------------------------------------------------------|
D|-----------------------------------------------------------------|


        Pre-Chorus:

e|-------------------------------------------------|
B|-10-10-10-10-10-10-10-10-10-10-10-10-10-10-10-10-|
G|-10-10-10-10-10-10-10-10-10-10-10-10-10-10-10-10-|
D|-------------------------------------------------|
A|-------------------------------------------------|
D|-------------------------------------------------|
 |
e|-------------------------------------------------|
B|-10-10-10-10-10-10-10-10-10-10-10-10-10-10-10-10-|
G|-9--9--9--9--9--9--9--9--9--9--9--9--9--9--9--9--|
D|-------------------------------------------------|
A|-------------------------------------------------|
D|-------------------------------------------------|


        Chorus:

> Tapping
e|-------------------------------------------------------------------------------------|
B|-------------------------------------------------------------------------------------|
G|-14-7-14-7-14-7-14-7-14-9-14-9-14-9-14-9-14-10-14-10-14-10-14-10-14-9-14-9-14-9-14-9-|
D|-------------------------------------------------------------------------------------|
A|-------------------------------------------------------------------------------------|
D|-------------------------------------------------------------------------------------|
 |
 |                                            > Picking
e|----------------------------------------------------------------------------|
B|-15-10-8-10-15-10-8-10-15-10-8-10-8---10------------------------------------|
G|----------------------------------------------------------------------------|
D|--------------------------------------------3-3-3-3-3-3-3-3-5-5-5-5-5-5-5-5-|
A|--------------------------------------------3-3-3-3-3-3-3-3-5-5-5-5-5-5-5-5-|
D|--------------------------------------------3-3-3-3-3-3-3-3-5-5-5-5-5-5-5-5-|
 |
e|--------------------------------------------------------------------------------|
B|--------------------------------------------------------------------------------|
G|-7-7-7-7-7-7-7-7-7/9-9-9-9-9-9-9-9/10-10-10-10-10-10-10-10/12-12-12-12-12-12-12-|
D|--------------------------------------------------------------------------------|
A|--------------------------------------------------------------------------------|
D|--------------------------------------------------------------------------------|
 |
e|----------------------------------------------------------------------------|
B|-15-10-8-10-15-10-8-10-15-10-8-10-8---10------------------------------------|
G|----------------------------------------------------------------------------|
D|--------------------------------------------3-3-3-3-3-3-3-3-5-5-5-5-5-5-5-5-|
A|--------------------------------------------3-3-3-3-3-3-3-3-5-5-5-5-5-5-5-5-|
D|--------------------------------------------3-3-3-3-3-3-3-3-5-5-5-5-5-5-5-5-|


        Bridge:

> Dist with Delay
e|----------8------------8---------------------8------------8------------|
B|-----------------------------------------------------------------------|
G|-7-9-10-9-----7-9-10-9-----7-9-10-9-7-9-10-9-----7-9-10-9-----7-9-10-9-|
D|-----------------------------------------------------------------------|
A|-----------------------------------------------------------------------|
D|-----------------------------------------------------------------------|
 |
e|-------------13---------------13------------------------8------------8------------|
B|----------------------------------------------------------------------------------|
G|-12-14-15-14------12-14-15-14------12-14-15-14-7-9-10-9-----7-9-10-9-----7-9-10-9-|
D|----------------------------------------------------------------------------------|
A|----------------------------------------------------------------------------------|
D|----------------------------------------------------------------------------------|
 |
e|----------8------------8---------------------8------------8------------|
B|-----------------------------------------------------------------------|
G|-7-9-10-9-----7-9-10-9-----7-9-10-9-7-9-10-9-----7-9-10-9-----7-9-10-9-|
D|-----------------------------------------------------------------------|
A|-----------------------------------------------------------------------|
D|-----------------------------------------------------------------------|
 |
e|-------------13---------------13------------------------8------------8------------|
B|----------------------------------------------------------------------------------|
G|-12-14-15-14------12-14-15-14------12-14-15-14-7-9-10-9-----7-9-10-9-----7-9-10-9-|
D|----------------------------------------------------------------------------------|
A|----------------------------------------------------------------------------------|
D|----------------------------------------------------------------------------------|


        Chorus:

e|-------------------------------------------------|
B|-10-10-10-10-10-10-10-10-10-10-10-10-10-10-10-10-|
G|-10-10-10-10-10-10-10-10-10-10-10-10-10-10-10-10-|
D|-------------------------------------------------|
A|-------------------------------------------------|
D|-------------------------------------------------|
 |
e|-------------------------------------------------|
B|-10-10-10-10-10-10-10-10-10-10-10-10-------------|
G|-9--9--9--9--9--9--9--9--9--9--9--9--------------|
D|-------------------------------------------------|
A|-------------------------------------------------|
D|-------------------------------------------------|
 |
 |
> Tapping                                     > Picking
e|----------------------------------------------------------------------------|
B|-15-10-8-10-15-10-8-10-15-10-8-10-8---10------------------------------------|
G|----------------------------------------------------------------------------|
D|--------------------------------------------3-3-3-3-3-3-3-3-5-5-5-5-5-5-5-5-|
A|--------------------------------------------3-3-3-3-3-3-3-3-5-5-5-5-5-5-5-5-|
D|--------------------------------------------3-3-3-3-3-3-3-3-5-5-5-5-5-5-5-5-|
 |
e|--------------------------------------------------------------------------------|
B|--------------------------------------------------------------------------------|
G|-7-7-7-7-7-7-7-7-7/9-9-9-9-9-9-9-9/10-10-10-10-10-10-10-10/12-12-12-12-12-12-12-|
D|--------------------------------------------------------------------------------|
A|--------------------------------------------------------------------------------|
D|--------------------------------------------------------------------------------|
 |
e|----------------------------------------------------------------------------|
B|-15-10-8-10-15-10-8-10-15-10-8-10-8---10------------------------------------|
G|----------------------------------------------------------------------------|
D|--------------------------------------------3-3-3-3-3-3-3-3-5-5-5-5-5-5-5-5-|
A|--------------------------------------------3-3-3-3-3-3-3-3-5-5-5-5-5-5-5-5-|
D|--------------------------------------------3-3-3-3-3-3-3-3-5-5-5-5-5-5-5-5-|


        Outro:

e|-------------------------------------------------------------------------|
B|-------------------------------------------------------------------------|
G|-7-7-7-7-7-7-7-7-7/9-9-9-9-9-9-9-9/10-10-10-10-10-10-10-10/9-9-9-9-9-9-9-|
D|-------------------------------------------------------------------------|
A|-------------------------------------------------------------------------|
D|-------------------------------------------------------------------------|


_____________________________________________________________________________
Guitar 2:
(DADGBe)

        Intro:

> Distortion
e|---------------------------------------------------------------------------------|
B|---------------------------------------------------------------------------------|
G|---------------------------------------------------------------------------------|
D|-8-8-8-8-8-8-8-8-8-8-8-8-8-8-8-8-10-10-10-10-10-10-10-10-10-10-10-10-10-10-10-10-|
A|-8-8-8-8-8-8-8-8-8-8-8-8-8-8-8-8-10-10-10-10-10-10-10-10-10-10-10-10-10-10-10-10-|
D|-8-8-8-8-8-8-8-8-8-8-8-8-8-8-8-8-10-10-10-10-10-10-10-10-10-10-10-10-10-10-10-10-|
 |
e|-----------------------------------------------------------------|
B|-----------------------------------------------------------------|
G|-----------------------------------------------------------------|
D|-5-5-5-5-5-5-5-5-5-5-5-5-5-5-5-5-8-8-8-8-8-8-8-8-8-8-8-8-8-8-8-8-|
A|-5-5-5-5-5-5-5-5-5-5-5-5-5-5-5-5-8-8-8-8-8-8-8-8-8-8-8-8-8-8-8-8-|
D|-5-5-5-5-5-5-5-5-5-5-5-5-5-5-5-5-8-8-8-8-8-8-8-8-8-8-8-8-8-8-8-8-|


        Verse:

> Clean with Delay
e|-----5-------5-------5-------5-------8-------8-------8-------8---|
B|---6---6---6---6---6---6---6---6---8---8---8---8---8---8---8---8-|
G|-7-------7-------7-------7-------9-------9-------9-------9-------|
D|-----------------------------------------------------------------|
A|-----------------------------------------------------------------|
D|-----------------------------------------------------------------|
 | . . . . . . . . . . . . . . . . . . . . . . . . . . . . . . . . |
 |
e|-----6-------6-------6-------6-------8-------8-------8-------8---|
B|---6---6---6---6---6---6---6---6---8---8---8---8---8---8---8---8-|
G|-7-------7-------7-------7-------9-------9-------9-------9-------|
D|-----------------------------------------------------------------|
A|-----------------------------------------------------------------|
D|-----------------------------------------------------------------|
 | . . . . . . . . . . . . . . . . . . . . . . . . . . . . . . . . |
 |
e|-----5-------5-------5-------5-------8-------8-------8-------8---|
B|---6---6---6---6---6---6---6---6---8---8---8---8---8---8---8---8-|
G|-7-------7-------7-------7-------9-------9-------9-------9-------|
D|-----------------------------------------------------------------|
A|-----------------------------------------------------------------|
D|-----------------------------------------------------------------|
 | . . . . . . . . . . . . . . . . . . . . . . . . . . . . . . . . |
 |
e|-----6-------6-------6-------6-------8-------8-------8-------8---|
B|---6---6---6---6---6---6---6---6---8---8---8---8---8---8---8---8-|
G|-7-------7-------7-------7-------9-------9-------9-------9-------|
D|-----------------------------------------------------------------|
A|-----------------------------------------------------------------|
D|-----------------------------------------------------------------|
 | . . . . . . . . . . . . . . . . . . . . . . . . . . . . . . . . |


        Pre-Chorus:

> Distortion
e|-5-5-5-5-5-5-5-5-5-5-5-5-5-5-5-5-|
B|-6-6-6-6-6-6-6-6-6-6-6-6-6-6-6-6-|
G|-7-7-7-7-7-7-7-7-7-7-7-7-7-7-7-7-|
D|---------------------------------|
A|---------------------------------|
D|---------------------------------|
 |
e|-5-5-5-5-5-5-5-------------------|
B|-5-5-5-5-5-5-5-5-5-5-5-5---------|
G|-7-7-7-7-7-7-7-5-5-5-5-5---------|
D|---------------5-5-5-5-5---------|
A|---------------------------------|
D|---------------------------------|


        Chorus:

e|-----------------------------------------------------------------|
B|-----------------------------------------------------------------|
G|-----------------------------------------------------------------|
D|-0--0--000-----000--0--0-0--0--0-0--0--000-----000--0--0-0--0--0-|
A|-0--0--000-----000--0--0-0--0--0-0--0--000-----000--0--0-0--0--0-|
D|-0--0--000-----000--0--0-0--0--0-0--0--000-----000--0--0-0--0--0-|
 |
e|-----------------------------------------------------------------|
B|-----------------------------------------------------------------|
G|-----------------------------------------------------------------|
D|-8-8-8-8-8-8-8-8-8-8-8-8-8-8-8-8-3-3-3-3-3-3-3-3-5-5-5-5-5-5-5-5-|
A|-8-8-8-8-8-8-8-8-8-8-8-8-8-8-8-8-3-3-3-3-3-3-3-3-5-5-5-5-5-5-5-5-|
D|-8-8-8-8-8-8-8-8-8-8-8-8-8-8-8-8-3-3-3-3-3-3-3-3-5-5-5-5-5-5-5-5-|
 |
e|-----------------------------------------------------------------|
B|-----------------------------------------------------------------|
G|-----------------------------------------------------------------|
D|-0--0--000-----000--0--0-0--0--0-0--0--000-----000--0--0-0--0--0-|
A|-0--0--000-----000--0--0-0--0--0-0--0--000-----000--0--0-0--0--0-|
D|-0--0--000-----000--0--0-0--0--0-0--0--000-----000--0--0-0--0--0-|
 |
e|-----------------------------------------------------------------|
B|-----------------------------------------------------------------|
G|-----------------------------------------------------------------|
D|-8-8-8-8-8-8-8-8-8-8-8-8-8-8-8-8-3-3-3-3-3-3-3-3-5-5-5-5-5-5-5-5-|
A|-8-8-8-8-8-8-8-8-8-8-8-8-8-8-8-8-3-3-3-3-3-3-3-3-5-5-5-5-5-5-5-5-|
D|-8-8-8-8-8-8-8-8-8-8-8-8-8-8-8-8-3-3-3-3-3-3-3-3-5-5-5-5-5-5-5-5-|


        Verse:

e|-----------------------------------------------------------------|
B|-----------------------------------------------------------------|
G|-----------------------------------------------------------------|
D|-----------------------------------------------------------------|
A|-----------------------------------------------------------------|
D|-----------------------------------------------------------------|
 |
e|---------10-6----------------------------8-----------------------|
B|-----6-------------------------------6-------5-------------------|
G|-7-------------------------------7-------------------------------|
D|-----------------------------------------------------------------|
A|-----------------------------------------------------------------|
D|-----------------------------------------------------------------|
 |
e|---------5-------------------------------5-8---------------------|
B|-----6-------------------------------6---------------------------|
G|-7-------------------------------7-------------------------------|
D|-----------------------------------------------------------------|
A|-----------------------------------------------------------------|
D|-----------------------------------------------------------------|
 |
e|---------10-6----------------------------8-----------------------|
B|-----6-------------------------------6-------5-------------------|
G|-7-------------------------------7-------------------------------|
D|-----------------------------------------------------------------|
A|-----------------------------------------------------------------|
D|-----------------------------------------------------------------|


        Pre-Chorus:

e|-5-5-5-5-5-5-5-5-5-5-5-5-5-5-5-5-|
B|-6-6-6-6-6-6-6-6-6-6-6-6-6-6-6-6-|
G|-7-7-7-7-7-7-7-7-7-7-7-7-7-7-7-7-|
D|---------------------------------|
A|---------------------------------|
D|---------------------------------|
 |
e|-5-5-5-5-5-5-5-------------------|
B|-5-5-5-5-5-5-5-5-5-5-5-5-5-5-5-5-|
G|-7-7-7-7-7-7-7-5-5-5-5-5-5-5-5-5-|
D|---------------5-5-5-5-5-5-5-5-5-|
A|---------------------------------|
D|---------------------------------|


        Chorus:

e|-----------------------------------------------------------------|
B|-----------------------------------------------------------------|
G|-----------------------------------------------------------------|
D|-0--0--000-----000--0--0-0--0--0-0--0--000-----000--0--0-0--0--0-|
A|-0--0--000-----000--0--0-0--0--0-0--0--000-----000--0--0-0--0--0-|
D|-0--0--000-----000--0--0-0--0--0-0--0--000-----000--0--0-0--0--0-|
 |
e|-----------------------------------------------------------------|
B|-----------------------------------------------------------------|
G|-----------------------------------------------------------------|
D|-8-8-8-8-8-8-8-8-8-8-8-8-8-8-8-8-3-3-3-3-3-3-3-3-5-5-5-5-5-5-5-5-|
A|-8-8-8-8-8-8-8-8-8-8-8-8-8-8-8-8-3-3-3-3-3-3-3-3-5-5-5-5-5-5-5-5-|
D|-8-8-8-8-8-8-8-8-8-8-8-8-8-8-8-8-3-3-3-3-3-3-3-3-5-5-5-5-5-5-5-5-|
 |
e|-----------------------------------------------------------------|
B|-----------------------------------------------------------------|
G|-----------------------------------------------------------------|
D|-0--0--000-----000--0--0-0--0--0-0--0--000-----000--0--0-0--0--0-|
A|-0--0--000-----000--0--0-0--0--0-0--0--000-----000--0--0-0--0--0-|
D|-0--0--000-----000--0--0-0--0--0-0--0--000-----000--0--0-0--0--0-|
 |
e|-----------------------------------------------------------------|
B|-----------------------------------------------------------------|
G|-----------------------------------------------------------------|
D|-8-8-8-8-8-8-8-8-8-8-8-8-8-8-8-8-3-3-3-3-3-3-3-3-5-5-5-5-5-5-5-5-|
A|-8-8-8-8-8-8-8-8-8-8-8-8-8-8-8-8-3-3-3-3-3-3-3-3-5-5-5-5-5-5-5-5-|
D|-8-8-8-8-8-8-8-8-8-8-8-8-8-8-8-8-3-3-3-3-3-3-3-3-5-5-5-5-5-5-5-5-|


        Bridge:

e|---------------------------------------------------------------------------------|
B|---------------------------------------------------------------------------------|
G|---------------------------------------------------------------------------------|
D|-8-8-8-8-8-8-8-8-8-8-8-8-8-8-8-8-10-10-10-10-10-10-10-10-10-10-10-10-10-10-10-10-|
A|-8-8-8-8-8-8-8-8-8-8-8-8-8-8-8-8-10-10-10-10-10-10-10-10-10-10-10-10-10-10-10-10-|
D|-8-8-8-8-8-8-8-8-8-8-8-8-8-8-8-8-10-10-10-10-10-10-10-10-10-10-10-10-10-10-10-10-|
 |
e|-----------------------------------------------------------------|
B|-----------------------------------------------------------------|
G|-----------------------------------------------------------------|
D|-5-5-5-5-5-5-5-5-5-5-5-5-5-5-5-5-8-8-8-8-8-8-8-8-8-8-8-8-8-8-x-x-|
A|-5-5-5-5-5-5-5-5-5-5-5-5-5-5-5-5-8-8-8-8-8-8-8-8-8-8-8-8-8-8-x-x-|
D|-5-5-5-5-5-5-5-5-5-5-5-5-5-5-5-5-8-8-8-8-8-8-8-8-8-8-8-8-8-8-x-x-|

e|---------------------------------------------------------------------------------|
B|---------------------------------------------------------------------------------|
G|---------------------------------------------------------------------------------|
D|-8-8-8-8-8-8-8-8-8-8-8-8-8-8-8-8-10-10-10-10-10-10-10-10-10-10-10-10-10-10-10-10-|
A|-8-8-8-8-8-8-8-8-8-8-8-8-8-8-8-8-10-10-10-10-10-10-10-10-10-10-10-10-10-10-10-10-|
D|-8-8-8-8-8-8-8-8-8-8-8-8-8-8-8-8-10-10-10-10-10-10-10-10-10-10-10-10-10-10-10-10-|
 |
e|-----------------------------------------------------------------|
B|-----------------------------------------------------------------|
G|-----------------------------------------------------------------|
D|-5-5-5-5-5-5-5-5-5-5-5-5-5-5-5-5-8-8-8-8-8-8-8-8-8-8-8-8-8-8-8-8-|
A|-5-5-5-5-5-5-5-5-5-5-5-5-5-5-5-5-8-8-8-8-8-8-8-8-8-8-8-8-8-8-8-8-|
D|-5-5-5-5-5-5-5-5-5-5-5-5-5-5-5-5-8-8-8-8-8-8-8-8-8-8-8-8-8-8-8-8-|


        Chorus:

e|-5-5-5-5-5-5-5-5-5-5-5-5-5-5-5-5-|
B|-6-6-6-6-6-6-6-6-6-6-6-6-6-6-6-6-|
G|-7-7-7-7-7-7-7-7-7-7-7-7-7-7-7-7-|
D|---------------------------------|
A|---------------------------------|
D|---------------------------------|
 |
e|-5-5-5-5-5-5-5-5-5-5-5-5---------|
B|-5-5-5-5-5-5-5-5-5-5-5-5---------|
G|-7-7-7-7-7-7-7-7-7-7-7-7---------|
D|---------------------------------|
A|---------------------------------|
D|---------------------------------|
 |
e|-----------------------------------------------------------------|
B|-----------------------------------------------------------------|
G|-----------------------------------------------------------------|
D|-8-8-8-8-8-8-8-8-8-8-8-8-8-8-8-8-3-3-3-3-3-3-3-3-5-5-5-5-5-5-5-5-|
A|-8-8-8-8-8-8-8-8-8-8-8-8-8-8-8-8-3-3-3-3-3-3-3-3-5-5-5-5-5-5-5-5-|
D|-8-8-8-8-8-8-8-8-8-8-8-8-8-8-8-8-3-3-3-3-3-3-3-3-5-5-5-5-5-5-5-5-|
 |
e|-----------------------------------------------------------------|
B|-----------------------------------------------------------------|
G|-----------------------------------------------------------------|
D|-0--0--000-----000--0--0-0--0--0-0--0--000-----000--0--0-0--0--0-|
A|-0--0--000-----000--0--0-0--0--0-0--0--000-----000--0--0-0--0--0-|
D|-0--0--000-----000--0--0-0--0--0-0--0--000-----000--0--0-0--0--0-|
 |
e|-----------------------------------------------------------------|
B|-----------------------------------------------------------------|
G|-----------------------------------------------------------------|
D|-8-8-8-8-8-8-8-8-8-8-8-8-8-8-8-8-3-3-3-3-3-3-3-3-5-5-5-5-5-5-5-5-|
A|-8-8-8-8-8-8-8-8-8-8-8-8-8-8-8-8-3-3-3-3-3-3-3-3-5-5-5-5-5-5-5-5-|
D|-8-8-8-8-8-8-8-8-8-8-8-8-8-8-8-8-3-3-3-3-3-3-3-3-5-5-5-5-5-5-5-5-|


        Outro:

e|-----------------------------------------------------------------|
B|-----------------------------------------------------------------|
G|-----------------------------------------------------------------|
D|-0--0--000-----000--0--0-0--0--0-0--0--000-----000--0--0-0--0--0-|
A|-0--0--000-----000--0--0-0--0--0-0--0--000-----000--0--0-0--0--0-|
D|-0--0--000-----000--0--0-0--0--0-0--0--000-----000--0--0-0--0--0-|





Comments


Popular Ivoryline tabs & chords
All You Ever Hear Bass Tabs
Days End Bass Tabs
Instincts Bass Tabs
All You Ever Hear Tabs
Parade Tabs
Remind Me I'm Alive Tabs
The Healing Tabs
The Last Words Tabs
The Last Words 2 Tabs
Made From Dust Ukulele


Song lyrics



↑ Back to top | Tablatures and chords are parodies/interpretations of the original songs. You may use it for private study, scholarship, research or language learning purposes only
© 2014 AZChords.com Contact us | Privacy policy | DMCA | Add/correct tabs | Request tabs | Top 50 tabs