>
 >
Somewhere Over The Rainbow What A Wonderful World

Somewhere Over The Rainbow What A Wonderful World Guitar Tabs

Israel Kamakawiwoole - Somewhere Over The Rainbow What A Wonderful World chords, tabs, tablatures, lyrics

Guitar lessons | Add/correct | Request | Top 50 tabs Artists:  A B C D E F G H I J K L M N O P Q R S T U V W X Y Z 0-9

Somewhere Over The Rainbow What A Wonderful World Guitar Tabs – Israel Kamakawiwoole

CD, Sheet music, Poster

Do you like Somewhere Over The Rainbow What A Wonderful World? Share with your friends now
ChordsChords v2Chords v3Chords v4Chords v5Chords v6Chords v7Chords v8Chords v9Chords v10TabsTabs v2Ukulele
Somewhere Over the Rainbow/What a Wonderful World
By Israel Kamakawiwo’ole


(yesh its a tad long but once you get the gist of it its real easy and repetitive, if 
try it on a ukelele it sounds wicked cool ^___^ but tuning waaaay up gives you the same 
- enjoy)


Intro:
  e|--3--3----3-------2--2----2-------0--0----0-------3--3----3--------|
  B|--0--0----0-------3--3----3-------1--1----1-------0--0----0--------|
  G|--0--0----0-------2--2----2-------0--0----0-------0--0----0--------|
  D|--0--0----0-------4--4----4-------2--2----2-------0--0----0--------|
  A|--2--2----2-------0--0----0-------3--3----3-------2--2----2--------|
  E|--3--3----3-------0--0----0-----------------------3--3----3--------|

  e|--0--0----0-------2--2----2-------0--0----0-------0--0----0--------|
  B|--1--1----1-------3--3----3-------0--0----0-------1--1----1--------|
  G|--0--0----0-------4--4----4-------0--0----0-------0--0----0--------|
  D|--2--2----2-------0--0----0-------2--2----2-------2--2----2--------|
  A|--3--3----3-------0--0----0-------2--2----2-------3--3----3--------|
  E|------------------2--2----2-------0--0----0------------------------|


Intro (with the ‘oooooo’s):
  e|--3--3----3-------2--2----2-------0--0----0-------3--3----3--------|
  B|--0--0----0-------3--3----3-------1--1----1-------0--0----0--------|
  G|--0--0----0-------2--2----2-------0--0----0-------0--0----0--------|
  D|--0--0----0-------4--4----4-------2--2----2-------0--0----0--------|
  A|--2--2----2-------0--0----0-------3--3----3-------2--2----2--------|
  E|--3--3----3-------0--0----0-----------------------3--3----3--------|
     Oooooo-oooo     Oooooo-oooo     Oooooo-oooo     Oooooo-oooo

  e|--0--0----0-------2--2----2-------0--0----0-------0--0----0--------|
  B|--1--1----1-------3--3----3-------0--0----0-------1--1----1--------|
  G|--0--0----0-------4--4----4-------0--0----0-------0--0----0--------|
  D|--2--2----2-------0--0----0-------2--2----2-------2--2----2--------|
  A|--3--3----3-------0--0----0-------2--2----2-------3--3----3--------|
  E|------------------2--2----2-------0--0----0------------------------|
    Oooooo-oooo      Oooooo-oooo     Oooooo-oooo     Oooooo-oooo


Verse 1:
  e|--3--3----3-------2--2----2---------0--0----0-------0--0----0--------|
  B|--0--0----0-------3--3----3---------1--1----1-------0--0----0--------|
  G|--0--0----0-------2--2----2---------0--0----0-------0--0----0--------|
  D|--0--0----0-------4--4----4---------2--2----2-------0--0----0--------|
  A|--2--2----2-------0--0----0---------2--2----2------------------------|
  E|--3--3----3-------0--0----0------------------------------------------|
      Somewhere       over the rainbow way up           high

  e|--0--0----0-------3--3--3------------------2--2----2------0--0----0--0|
  B|--1--1----1-------0--0--0------------------3--3----3------0--0----0--1|
  G|--0--0----0-------0--0--0------------------2--2----2------0--0----0--0|
  D|--2--2----2-------0--0--0------------------0--0----0------2--2----2--2|
  A|--3--3----3-------2--2--2---------------------------------2--2----2--3|
  E|----------------------------------------------------------0--0----0---|
      And the         dreams that you dream of once in a      lullaby

  e|--3--3----3-------2--2----2---------0--0----0-------0--0----0--------|
  B|--0--0----0-------3--3----3---------1--1----1-------0--0----0--------|
  G|--0--0----0-------2--2----2---------0--0----0-------0--0----0--------|
  D|--0--0----0-------4--4----4---------2--2----2-------0--0----0--------|
  A|--2--2----2-------0--0----0---------2--2----2------------------------|
  E|--3--3----3-------0--0----0------------------------------------------|
   Oh somewhere       over the rainbow  blue birds      fly

  e|--0--0----0---3--3--3---------2--2----2---0--0----0-------------0-|
  B|--1--1----1---0--0--0---------3--3----3---0--0----0-------------1-|
  G|--0--0----0---0--0--0---------2--2----2---0--0----0-------------0-|
  D|--2--2----2---0--0--0---------0--0----0---2--2----2-------------2-|
  A|--3--3----3---2--2--2---------------------2--2----2-------------3-|
  E|------------------------------------------0--0----0---------------|
      And the     dreams that you dream of    dreams really do come true


Verse 2:
e|--3--3----3-----3--3----3------2--2----2-----2--2----2-------0-0--0--0-|
B|--0--0----0-----0--0----0------3--3----3-----3--3----3-------0-0--0--1-|
G|--0--0----0-----0--0----0------2--2----2-----2--2----2-------0-0--0--0-|
D|--0--0----0-----0--0----0------4--4----4-----4--4----4-------2-2--2--0-|
A|--2--2----2-----2--2----2------0--0----0-----0--0----0-------2-2--2--2-|
E|--3--3----3-----3--3----3------0--0----0-----0--0----0---------------3-|
    Someday I’ll wish upon a starWake up where TheCloudsAre FarBehind me

  e|--3-3--3-------3-3--3--------2-2---2-------2-2---2----------0--0---0-|
  B|--0-0--0-------0-0--0--------3-3---3-------3-3---3----------0--0---0-|
  G|--0-0--0-------0-0--0--------2-2---2-------2-2---2----------0--0---0-|
  D|--0-0--0-------0-0--0--------4-4---4-------4-4---4----------2--2---2-|
  A|--2-2--2-------2-2--2--------0-0---0-------0-0---0----------2--2---2-|
  E|--3-3--3-------3-3--3--------0-0---0-------0-0---0-------------------|
Where trouble MeltsLikeLemonDropsHigh above TheChimneyTopsThat’sWhere

  e|---0-----------------------------------------------------|
  B|---1-----------------------------------------------------|
  G|---0-----------------------------------------------------|
  D|---2-----------------------------------------------------|
  A|---3-----------------------------------------------------|
  E|---------------------------------------------------------|
you’ll find me


Verse 1:
  e|--3--3----3-------2--2----2---------0--0----0-------0--0----0--------|
  B|--0--0----0-------3--3----3---------1--1----1-------0--0----0--------|
  G|--0--0----0-------2--2----2---------0--0----0-------0--0----0--------|
  D|--0--0----0-------4--4----4---------2--2----2-------0--0----0--------|
  A|--2--2----2-------0--0----0---------2--2----2------------------------|
  E|--3--3----3-------0--0----0------------------------------------------|
   Oh somewhere       over the rainbow  blue birds      fly

  e|-0--0---0---3-—3---3-----------------2--2---2------------0--0---0---0-|
  B|-1--1---1---0--0---0-----------------3--3---3------------0--0---0---1-|
  G|-0--0---0---0--0---0-----------------2--2---2------------0--0---0---0-|
  D|-2--2---2---0—-0---0-----------------0--0---0------------2--2---2---2-|
  A|-3--3---3---2--2---2-------------------------------------2--2---2---3-|
  E|---------------------------------------------------------0--0---0-----|
     And the    dreams that you dare to, oh why,oh why can’t I?


Verse 3:
  e|-------3--3----3-----2--2----2------0--0----0-------0--0----0--------|
  B|-------0--0----0-----3--3----3------1--1----1-------0--0----0--------|
  G|-------0--0----0-----2--2----2------0--0----0-------0--0----0--------|
  D|-------0--0----0-----0--0----0------2--2----2-------0--0----0--------|
  A|-------2--2----2-----0--0----0------2--2----2------------------------|
  E|-------3--3----3-----0--0----0---------------------------------------|
Well I see trees of      green and      red roses       too

  e|-0--0----0-------3--3--3----------2--2----2-------0--0----0-----0---|
  B|-1--1----1-------0--0--0----------3--3----3-------0--0----0-----1---|
  G|-0--0----0-------0--0--0----------2--2----2-------0--0----0-----0---|
  D|-2--2----2-------0--0--0----------0--0----0-------2--2----2-----2---|
  A|-3--3----3-------2--2--2--------------------------2--2----2-----3---|
  E|--------------------------------------------------0--0----0---------|
     I’ll watch them bloom            for me and      you

  e|-0--0---0------------2--2----2--------0--0---0----0-0---0----3-3---3--|
  B|-1--1---1------------3--3----3--------0--0---0----1-1---1----0—0---0--|
  G|-0--0---0------------2--2----2--------0--0---0----0-0---0----0—0---0--|
  D|-2--2---2------------0--0----0--------2--2---2----2-2---2----2—2---2--|
  A|-3--3---3-----------------------------------------3-3---3----3—3---3--|
  E|----------------------------------------------------------------------|
 And I think to myself – what a wonderful world


Verse 4:
  e|-------3--3----3-----2--2----2-------0--0----0-------0--0----0--------|
  B|-------0--0----0-----3--3----3-------1--1----1-------0--0----0--------|
  G|-------0--0----0-----2--2----2-------0--0----0-------0--0----0--------|
  D|-------0--0----0-----0--0----0-------2--2----2-------0--0----0--------|
  A|-------2--2----2-----0--0----0-------2--2----2------------------------|
  E|-------3--3----3-----0--0----0----------------------------------------|
Well I see skies of      blue and       clouds of        white

  e|----0--0----0-----3--3--3-----------2--2----2-------0--0----0-----0---|
  B|----1--1----1-----0--0--0-----------3--3----3-------0--0----0-----1---|
  G|----0--0----0-----0--0--0-----------2--2----2-------0--0----0-----0---|
  D|----2--2----2-----0--0--0-----------0--0----0-------2--2----2-----2---|
  A|----3--3----3-----2--2--2---------------------------2--2----2-----3---|
  E|----------------------------------------------------0--0----0---------|
And the brightness of day, I like the                   dark

  e|-0--0----0------------2--2---2-----3--3---3----0—0----0-----3-3----3--|
  B|-1--1----1------------3--3---3-----0--0---0----1—1----1-----0—0----0--|
  G|-0--0----0------------2--2---2-----0--0---0----0—0----0-----0—0----0--|
  D|-2--2----2------------0--0---0-----2--2---2----2-2----2-----2—2----2--|
  A|-3--3----3-------------------------3--3---3----3-3----3-----3—3----3--|
  E|----------------------------------------------------------------------|
 And I think to myself –  what a wonderful world

Verse 5:
  e|--2--2----2------------------0--0----0-----------------------|
  B|--3--3----3------------------0--0----0-----------------------|
  G|--2--2----2------------------0--0----0-----------------------|
  D|--0--0----0------------------2--2----2-----------------------|
  A|-----------------------------2--2----2-----------------------|
  E|-----------------------------0--0----0-----------------------|
  The colors of the rainbow so   pretty in the sky

  e|--2--2----2------------------0--0----0-----------------------|
  B|--3--3----3------------------0--0----0-----------------------|
  G|--2--2----2------------------0--0----0-----------------------|
  D|--0--0----0------------------2--2----2-----------------------|
  A|-----------------------------2--2----2-----------------------|
  E|-----------------------------0--0----0-----------------------|
  Are also on the faces of       people passing by

 e|-0--0----0-------0--0----0-----0--0---0----0--0----0-------------|
 B|-1--1----1-------0--0----0-----1--1---1----0--0----0-------------|
 G|-0--0----0-------0--0----0-----0--0---0----0--0----0-------------|
 D|-2--2----2-------0--0----0-----2--2---2----0--0----0-------------|
 A|-2--2----2---------------------2--2---2--------------------------|
 E|-----------------------------------------------------------------|
See friends shaking hands saying ‘how do you  do?’

  e|--0--0----0-------0--0----0-------0--0----0-------2--2----2--------|
  B|--1--1----1-------0--0----0-------1--1----1-------3--3----3--------|
  G|--0--0----0-------0--0----0-------0--0----0-------2--2----2--------|
  D|--2--2----2-------0--0----0-------2--2----2-------0--0----0--------|
  A|--2--2----2-----------------------3--3----3------------------------|
  E|-------------------------------------------------------------------|
      They’re really  saying          I…...I love     you


Verse 6:
  e|---3--3----3-------2--2----2---------0--0----0-------0--0----0------------|
  B|---0--0----0-------3--3----3---------1--1----1-------0--0----0------------|
  G|---0--0----0-------2--2----2---------0--0----0-------0--0----0------------|
  D|---0--0----0-------0--0----0---------2--2----2-------0--0----0------------|
  A|---2--2----2-------0--0----0---------2--2----2----------------------------|
  E|---3--3----3-------0--0----0----------------------------------------------|
I hear babies          cry    and        I watch them    grow

  e|-0--0----0----------3--3--3---------2--2----2-------0--0----0-----0---|
  B|-1--1----1----------0--0--0---------3--3----3-------0--0----0-----1---|
  G|-0--0----0----------0--0--0---------2--2----2-------0--0----0-----0---|
  D|-2--2----2----------0--0--0---------0--0----0-------2--2----2-----2---|
  A|-3--3----3----------2--2--2-------------------------2--2----2-----3---|
  E|----------------------------------------------------0--0----0---------|
     They’ll learn much more            than we’ll      know

  e|--0--0----0-------------2--2----2--------0--0----0-----0—0----0-------|
  B|--1--1----1-------------3--3----3--------0--0----0-----1—1----1-------|
  G|--0--0----0-------------2--2----2--------0--0----0-----0—0----0-------|
  D|--2--2----2-------------0--0----0--------2--2----2-----2--2----2------|
  A|--3--3----3------------------------------2--2----2-----3--3----3------|
  E|----------------------------------------------------------------------|
  And I think to myself –  what a wonderful world


Verse 2:
  e|-3--3----3-----3--3----3----2--2----2---2--2----2----------0--0---0--0-|
  B|-0--0----0-----0--0----0----3--3----3---3--3----3----------0--0---0--1-|
  G|-0--0----0-----0--0----0----2--2----2---2--2----2----------0--0---0--0-|
  D|-0--0----0-----0--0----0----4--4----4---4--4----4----------2--2---2--0-|
  A|-2--2----2-----2--2----2----0--0----0---0--0----0----------2--2---2--2-|
  E|-3--3----3-----3--3----3----0--0----0---0--0----0--------------------3-|
     Someday I’ll WishUponAStar WakeUpWhere the clouds are far behind me

  e|-3--3----3------3--3----3------2--2----2------2--2----2-------0--0---0-|
  B|-0--0----0------0--0----0------3--3----3------3--3----3-------0--0---0-|
  G|-0--0----0------0--0----0------2--2----2------2--2----2-------0--0---0-|
  D|-0--0----0------0--0----0------4--4----4------4--4----4-------2--2---2-|
  A|-2--2----2------2--2----2------0--0----0------0--0----0-------2--2---2-|
  E|-3--3----3------3--3----3------0--0----0------0--0----0----------------|
Where trouble melts LikeLemonDrops HighAbove the ChimneyTopsThat’sWhere

  e|---0-----------------------------------------------------|
  B|---1-----------------------------------------------------|
  G|---0-----------------------------------------------------|
  D|---2-----------------------------------------------------|
  A|---3-----------------------------------------------------|
  E|---------------------------------------------------------|
you’ll find me


Verse 7:
  e|--3--3----3-------2--2----2---------0--0----0-------0--0----0--------|
  B|--0--0----0-------3--3----3---------1--1----1-------0--0----0--------|
  G|--0--0----0-------2--2----2---------0--0----0-------0--0----0--------|
  D|--0--0----0-------4--4----4---------2--2----2-------0--0----0--------|
  A|--2--2----2-------0--0----0---------2--2----2------------------------|
  E|--3--3----3-------0--0----0------------------------------------------|
   Oh somewhere       over the rainbow  way up          high

  e|-0--0---0---3—-3---3----------------2--2----2---------0--0----0-----0-|
  B|-1--1---1---0--0---0----------------3--3----3---------0--0----0-----1-|
  G|-0--0---0---0--0---0----------------2--2----2---------0--0----0-----0-|
  D|-2--2---2---0—0---0-----------------0--0----0---------2--2----2-----2-|
  A|-3--3---3---2--2---2----------------------------------2--2----2-----3-|
  E|------------------------------------------------------0--0----0-------|
     And the    dreams that you dare to,oh why,oh WhyCan’tI?


Intro (with the ‘oooooo’s):
  e|--3--3----3-------2--2----2-------0--0----0-------3--3----3--------|
  B|--0--0----0-------3--3----3-------1--1----1-------0--0----0--------|
  G|--0--0----0-------2--2----2-------0--0----0-------0--0----0--------|
  D|--0--0----0-------4--4----4-------2--2----2-------0--0----0--------|
  A|--2--2----2-------0--0----0-------3--3----3-------2--2----2--------|
  E|--3--3----3-------0--0----0-----------------------3--3----3--------|
     Oooooo-oooo     Oooooo-oooo     Oooooo-oooo     Oooooo-oooo

  e|--0--0----0-------2--2----2-------0--0----0-------0--0----0--------|
  B|--1--1----1-------3--3----3-------0--0----0-------1--1----1--------|
  G|--0--0----0-------4--4----4-------0--0----0-------0--0----0--------|
  D|--2--2----2-------0--0----0-------2--2----2-------2--2----2--------|
  A|--3--3----3-------0--0----0-------2--2----2-------3--3----3--------|
  E|------------------2--2----2-------0--0----0------------------------|
    Oooooo-oooo      Oooooo-oooo     Oooooo-oooo     Oooooo-oooo


Intro (now ending chords):
  e|--3--3----3-------2--2----2-------0--0----0-------3--3----3--------|
  B|--0--0----0-------3--3----3-------1--1----1-------0--0----0--------|
  G|--0--0----0-------2--2----2-------0--0----0-------0--0----0--------|
  D|--0--0----0-------4--4----4-------2--2----2-------0--0----0--------|
  A|--2--2----2-------0--0----0-------3--3----3-------2--2----2--------|
  E|--3--3----3-------0--0----0------------------------3--3----3-------|

  e|--0--0----0-------2--2----2-------0--0----0-------0--0----0--------|
  B|--1--1----1-------3--3----3-------0--0----0-------1--1----1--------|
  G|--0--0----0-------4--4----4-------0--0----0-------0--0----0--------|
  D|--2--2----2-------0--0----0-------2--2----2-------2--2----2--------|
  A|--3--3----3-------0--0----0-------2--2----2-------3--3----3--------|
  E|------------------2--2----2-------0--0----0------------------------|


my name’s Maria and its my first real guitar tab attempt ^___^

~~~~~~~~~~~~~~~~~~~~~~~~~~~~~~~~~~~~~~~~~~~~~~~~~~~~~~~~~~~~~~~~~~~~~~~~~





Comments


Popular Israel Kamakawiwoole tabs & chords
Hawaii 78 Chords
Somewhere Over The Rainbow What A Wonderful World Chords
Somewhere Over The Rainbow What A Wonderful World 1 Chords
Somewhere Over The Rainbow What A Wonderful World 2 Chords
Somewhere Over The Rainbow What A Wonderful World 7 Chords
Somewhere Over The Rainbow What A Wonderful World 9 Chords
Ahi Wela Ukulele
Somewhere Over The Rainbow Ukulele
Somewhere Over The Rainbow What A Wonderful World Ukulele
White Sandy Beach Of Hawaii Ukulele


Song lyrics



↑ Back to top | Tablatures and chords are parodies/interpretations of the original songs. You may use it for private study, scholarship, research or language learning purposes only
© 2014 AZChords.com Contact us | Privacy policy | DMCA | Add/correct tabs | Request tabs | Top 50 tabs