» » »

I Set My Friends On Fire, Ravenous Ravenous Rhinos Bass tabs (ver.1)

Artists:  A B C D E F G H I J K L M N O P Q R S T U V W X Y Z # 

Ravenous Ravenous Rhinos Bass tabs (ver.1)

I Set My Friends On Fire Tabs
Rating:
0/5 (0 votes)
Ravenous Ravenous Rhinos lessons Tabs too difficult? Try these video lessons and learn fast
                
This sounds pretty right to me. If you have any corrections or comments, please 



Tuning: Drop C

0:00-0:02
F|--------|
C|--------|
G|--------|
C|9999999-|

0:03-0:34
F|---------------------------------------------------------------|
C|---------------------------------------------------------------|
G|---------------------------------------------------------------|
C|000----00000---00000--10-xx-9-xx-12--000----0000---00000-------|

F|-----------------------------------------------------------|
C|-----------------------------------------------------------|
G|-----------------------------------------------------------|
C|000----00000---00000--10-xx-9-xx-12--000----0000---00000---|

----------------------------------------------------------|
----------------------------------------------------------|
----------------------------------------------------------|
----77-xx-77-xx-77-xx-77-xx-99-xx-99-xx-99-xx-99-xx-0~----|


0:43-
F|-----------------------------------------------------------------------------------|
C|-----------------------------------------------------------------------------------|
G|-----------------------------------------------------------------------------------|
C|-00-x-00-x-00---0000000000000000-999999999999999-0000000000000000-999999999999999--|

F|----------------------------------------------------------------------|
C|----------------------------------------------------------------------|
G|----------------------------------------------------------------------|
C|---0000000000000000-999999999999999-0000000000000000-999999999999999--|


1:13-1:26
F|---------------------------------------------------------------------------|
C|---------------------------------------------------------------------------|
G|---------------------------------------------------------------------------|
C|-000-000-000-000-000-000-000-000--00--00--00--00--00--00--00--0~-----------|


(Techno Breakdown) 1:38-2:04
F|---------------------------------------------------------------------------|
C|---------------------------------------------------------------------------|
G|---------------------------------------------------------------------------|
C|----5-5-5-5-5-5-5-5-9-9-9-9-9-9-9-9-5-5-5-5-5-5-5-5-9-9-9-9-9-9-9-9--------|

F|---------------------------------------------------------------------------|
C|---------------------------------------------------------------------------|
G|---------------------------------------------------------------------------|
C|----5-5-5-5-5-5-5-5-9-9-9-9-9-9-9-9-5-5-5-5-5-5-5-5-9-9-9-9-9-9-9-9--------|

2:04-2:42
F|-----------------------------------------------------------------------------------------------|
C|-----------------------------------------------------------------------------------------------|
G|-----------------------------------------------------------------------------------------------|
C|---00----0--0--00---00-00----0---00---000000---0000----00----00000---00----00000----00-00000-0~|



| /  slide up
| \  slide down
| h  hammer-on
| p  pull-off
| ~  vibrato
| +  harmonic
| x  Mute note
===============================================================================
            

comments powered by Disqus
↑ Back to top | I Set My Friends On Fire Bass for Ravenous Ravenous Rhinos. Lyrics for acoustic guitar and electric guitar. Tablatures and chords are parodies/interpretations of the original songs. You may use it for private study, scholarship, research or language learning purposes only