>
 >
Ravenous, Ravenous Rhinos

Ravenous, Ravenous Rhinos Guitar Tabs

I Set My Friends On Fire - Ravenous, Ravenous Rhinos chords, tabs, tablatures, lyrics

Guitar lessons | Add/correct | Request | Top 50 tabs Artists:  A B C D E F G H I J K L M N O P Q R S T U V W X Y Z 0-9

Ravenous, Ravenous Rhinos Guitar Tabs – I Set My Friends On Fire

CD, Sheet music, Poster

Do you like Ravenous, Ravenous Rhinos? Share with your friends now
Bass TabsTabsTabs v2
I Set My Friends On Fire- Ravenous Ravenous Rhinos


D|-------------------------|
A|-------------------------|
F|--88888888---------------|    WHAT THE FUCK!
C|--77777777---------------|
G|--66666666---------------|
C|-------------------------|

D|-------------------------------------------------------|
A|-------------------------------------------------------|
F|-------------------------------------------------------|
C|---------------------------------------------7*--------|
G|--00--5h8p5--0---0000----0-0---000--5------------------|
C|--00---------0---0000----0-0---000----8--3p0-----------|
    ..         .   ....    . .   ...

D|-------------------------------------------------------|
A|-------------------------------------------------------|
F|-----------------------------------------77-66---------|
C|-------------------------------------------------------|
G|--00--5h8p5--0---0000----0-0---000--5----55-44---------|
C|--00---------0---0000----0-0---000----8----------------|
    ..         .   ....    . .   ...

D|-------------------------------------------------------|
A|-------------------------------------------------------|
F|-------------------------------------------------------|
C|---------------------------------------------7*--------|
G|--00--5h8p5--0---0000----0-0---000--5------------------|
C|--00---------0---0000----0-0---000----8--3p0-----------|
    ..         .   ....    . .   ...

D|-------------------------------------------------------|
A|-------------------------------------------------------|
F|-------------------------------------------------------|
C|-------------------------------------------------------|
G|--00--5h8p5--0---0000----0-0---000---------------------|
C|--00---------0---0000----0-0---000---------------------|
    ..         .   ....    . .   ...

D|--------------------------------------------------------|
A|--------------------------------------------------------|
F|--99--99--99--99--1212--1212---12\10---10\9-------------|
C|-----------------------------------------------0--------|
G|--77--77--77--77--1010--1010---10\8-----8\7----0--------|(let ring)
C|-----------------------------------------------0--------|

D|--------------------------------------------------------|
A|--------------------------------------------------------|
F|---------------------------------------5555555555555555-|
C|--33--333--333--333--0000000000000000--5555555555555555-|
G|--33--333--333--333--0000000000000000--3333333333333333-|
C|--33--333--333--333--0000000000000000-------------------|

D|-------------------------------------------------------|
A|-------------------------------------------------------|
F|-------------------------------------------------------|
C|--5555555555555555--3333333333333333-------------------|
G|--5555555555555555--3333333333333333-------------------|
C|--5555555555555555--3333333333333333-------------------|

D|------------------------------------------------------------------------|
A|------------------------------------------------------------------------|
F|---------------------555555555555555------------------------------------|
C|--0000000000000000---555555555555555-5555555555555555--3333333333333333-|
G|--0000000000000000---333333333333333-5555555555555555--3333333333333333-|
C|--0000000000000000 ------------------5555555555555555--3333333333333333-|

D|--------------------------------------------------------|
A|-----------------------11-------------18----------------|
F|-----------------------14-------15-17-------------------|
C|-000-000-000-000----00-----X7--------------0------------|
G|-000-000-000-000-X2-00---------------------0------------|(let ring)
C|-000-000-000-000----00---------------------0------------|
   ... ... ... ...    ..

Now theres a little part with no guitar

then...BREAKDOWN!

D|--------------------------------------------------------|
A|--------------------------------------------------------|
F|-----------------------------------------------88---8-8-|
C|--00-----0--0---00---0--0---00---0-------00--0-77---7-7-|
G|--00-----0--0---00---0--0---00---0-------00--0-66-0-6-6-|
C|--00-----0--0---00---0--0---00---1-------00--0----0--0--|
    ..     .  .   ..   .  .   ..   .       ..  .    .  .

D|---------------------------------------------------------------------|
A|---------------------------------------------------------------------|
F|----------------8-8---------------8-8-----------------8--------------|
C|-00--000-000----7-7--00--000-000--7-7---00--000-000---7--------------|(let it ring)
G|-00--000-000-X2-6-6--00--000-000--6-6---00--000-000---6--------------|
C|-00--000-000---0-0---00--000-000-0-0----00--000-000-0----------------|
   ..  ... ...   . .   ..  ... ...   .    ..  ... ... .

THE END!





Comments


Popular I Set My Friends On Fire tabs & chords
Ravenous, Ravenous Rhinos Bass Tabs
Reese's Pieces, I Don't Know Who John Cleese Is? Bass Tabs
Beauty Is In The Eye Of The Beerholder Tabs
But The NUNS Are Watching.. 2 Tabs
It Comes Naturally 1 Tabs
Sex Ed Rocks Tabs
Things That Rhyme With Orange Tabs
Wtfwjd Tabs
Things That Rhyme With Orange Ukulele
Untitled Acoustic Song Ukulele


Song lyrics



↑ Back to top | Tablatures and chords are parodies/interpretations of the original songs. You may use it for private study, scholarship, research or language learning purposes only
© 2014 AZChords.com Contact us | Privacy policy | DMCA | Add/correct tabs | Request tabs | Top 50 tabs