» » »

I Set My Friends On Fire, But The NUNS Are Watching.. Tabs (ver.2)

Artists:  A B C D E F G H I J K L M N O P Q R S T U V W X Y Z # 

But The NUNS Are Watching.. Tabs (ver.2)

I Set My Friends On Fire Tabs
Rating:
0/5 (0 votes)
But The NUNS Are Watching.. lessons Tabs too difficult? Try these video lessons and learn fast
                
But The NUNS Are Watching
ISMFOF
Tuning: Drop C

^=hammer on or pull off
*=palm mute
r=rest
~=let it ring
x=mute

intro/verse pt.1

D|-----7-0--------------------|
A|------8-7-8---8-7-8-7-8-7---|
F|9-8-9-----------------------|  x2 first
C|----------------------------|
G|----------------------------|
C|----------------------------|
    ^ ^  ^    r   ^ ^ ^ ^ ^

D|-----7-0------------6-------|
A|------8-7-8---8-7-8---8-7---|
F|9-8-9---------------------9-|
C|----------------------------|
G|----------------------------|
C|----------------------------|
    ^ ^  ^    r   ^ ^   ^ ^ ^

then do the 1st one again

repeat as many times desired

verse pt.2

D|----------------------------|
A|----------------------------|
F|----------------------------|
C|2~--2-2~----2---2---2---2-2-|
G|2~--2-2~----2---2---2---2-2-|
c|2~--2-2~----2---2---2---2-2-|
    r       r   r   r   r

repeat as much as desired

back to intro/verse pt.1


chorus

D|------------|
A|------------|
F|------------|    x2
C|2~-12~-10~--|
G|2~-12~-10~--|
C|2~-12~-10~--|


*note*
i usually mix the let it rings with regular strums especially on the 10 but it kinda 
like he lets it ring on the cd...

repeat verse pt.2 with some variations on the strumming pattern


"lead me back into my bedroom..."

D|--------|
A|--------|
F|--------|
C|10~-12~-
G|10~-12~-
C|10~-12~-


heavy screamo part
"the salt on my lips is an enzyme..."

D|------------------------------|
A|------------------------------|
F|----------------14-14-15-14---|
C|0-0-0-0-0-0-0-0-15-15------15-|
G|0-0-0-0-0-0-0-0---------------|
C|0-0-0-0-0-0-0-0---------------|
  * * * * * * * *

lots of variations of this but its really just these chords the whole time played in 
ways

then end with

D|17~~---
A|-------|
F|-------|
C|-------|
G|-------|
C|-------|

then the rest is basically open strums (zeroes) and repeating a few stuff from earlier,

one of the bar chords i did that sounds pretty good was this:

D|x-3~--
A|x-3~--
F|x-3~--
C|------|
G|------|
C|------|

can be replaced with

D|------
A|x-08~-
F|x-11~-
C|------|
G|------|
C|------|

i basically just messed around with what i did at that part :P

yea then end with

D|----------------|
A|----------------|
F|----9-9---9-9---|
C|0-0----0-0---0~-|
G|0-0----0-0---0~-|
C|0-0----0-0---0~-|
  * *    * *   *

*note*
i messed this part up =)) so its not in my cover (forgot about this part just open palm 
instead)

what i think nabil (the guitarist) actually plays in intro/ verse pt.1

D|-----7-0---------------------------|
A|5-----8-7-8---08-08-08-08-08-08-08-|
F|-8------------11-11-11-11-11-11-11-|
C|-----------------------------------|
G|-----------------------------------|
C|-----------------------------------|
    r

try arpeggiating (arpeggio) the 08&11's not sure if he arpeggiates it though
            

comments powered by Disqus
↑ Back to top | I Set My Friends On Fire Tabs for But The NUNS Are Watching... Lyrics for acoustic guitar and electric guitar. Tablatures and chords are parodies/interpretations of the original songs. You may use it for private study, scholarship, research or language learning purposes only