>
 >
Wildest Dreams 1

Wildest Dreams 1 Bass Tabs

Iron Maiden - Wildest Dreams 1 chords, tabs, tablatures, lyrics

Guitar lessons | Add/correct | Request | Top 50 tabs Artists:  A B C D E F G H I J K L M N O P Q R S T U V W X Y Z 0-9

Wildest Dreams 1 Bass Tabs – Iron Maiden

CD, Sheet music, Poster

Do you like Wildest Dreams 1? Share with your friends now
Bass Tabs
Intro                (0:10)   (0:13)         (0:15)          (0:17)        (0:19)     Play x3(0:13 to 0:40),2nd time enter lirycs
 G---9---9---9-----9---7---7---|---9------------9---9------------9------------7---7----------|----|-------------------------------
 D-9-9---9-9-9---9-9---7-7-7---|-9-9------------9-9-9----------9-9------------7-7-7----------|-X3-|-------------------------------
 A-7-7-r-7-7-7-r-7-7-r-5-5-5-r-|-7-7-7777777777-7-7-7-77777777-7-7-7777777777-5-5-5-55555555-|----|-------------------------------
 E-----------------------------|-------------------------------------------------------------|----|-------------------------------

 (0:41)"And I just fell...   (0:45)       (0:47)  (0:49)
 G-----------------------------------------------------------------------------------
 D----------------5542---5542----------------5542---5542----------------5542---5542--
 A-----------------------------------------------------------------------------------
 E-111111111111-3------3------111111111111-3------3------111111111111-3------3-------

 (0:55)         (0:57)
 G------------------9---------
 D------------------9---------
 A------------------7-777777--
 E-111111111111-3-5-----------

  (0:59)Chorus      (1:02)         (1:04)            (1:06) Play x2 (0:59 to 1:17)
 G-|-9----------------9-7-5----------9----------------9-7-5--------|----|---------
 D-|-7-77777777777777-7-7-3-333-53---7-77777777777777-7-7-5--------|-X2-|---------
 A-|--------------------5---------5---------------------5-3-333333-|----|---------
 E-|---------------------------------------------------------------|----|---------

  (1:18)"When I remember...       (1:22)        (1:25)   Play x2 (1:18 to 1:35)
 G-|---9------------9---9------------9------------7---7----------|----|--------
 D-|-9-9------------9-9-9----------9-9------------7-7-7----------|-X2-|--------
 A-|-7-7-7777777777-7-7-7-77777777-7-7-7777777777-5-5-5-55555555-|----|--------
 E-|-------------------------------------------------------------|----|--------

 (1:36)"When I'm feeling down...          (1:43) (1:44)             (1:48)  (1:49)
 G---------------------------------------------------------------------------------------
 D----------------5542---5542----------------5542---5542----------------5542---5542------
 A---------------------------------------------------------------------------------------
 E-111111111111-3------3------111111111111-3------3------111111111111-3------3-----------

               (1:52)
 G------------------9----------
 D------------------9----------
 A------------------7-777777---
 E-111111111111-3-5------------

  (1:55)Chorus       (1:57)                       Play x2 (1:55 to 2:12) (2:13)
 G-|-9----------------9-7-5----------9----------------9-7-5--------|----|---------------
 D-|-7-77777777777777-7-7-3-333-53---7-77777777777777-7-7-5--------|-X2-|---------------
 A-|--------------------5---------5---------------------5-3-333333-|----|-532-----------
 E-|---------------------------------------------------------------|----|----53-253222--

  (2:15)Solo     Play x4 (2:15 to 2:32) (2:33)    (2:37)             (2:41)
 G-|-4----------4------------------|----|-5--7--9------------5--7--9-----------
 D-|-4----------4------------------|-X4-|-5--7--9--6/7-6-----5--7--9--66-7-\9--
 A-|-2-222222-0-2-2222222222222222-|----|-3--5--7--------\7--3--5--7-----------
 E-|-------------------------------|----|--------------------------------------

           (2:46)                 (2:51)        (2:53) (2:54)  (2:55) Play x4 (2:53 to 3:11)
 G-5--7--9--13/14-13------5--7--9--1313-14-\16-|-5-------7-------9---------------|----|-----
 D-5--7--9-----------\14--5--7--9--------------|-5-------7-------9---------------|-X4-|-----
 A-3--5--7----------------3--5--7--------------|-3-33333-5-55555-7-7777777777777-|----|-----
 E---------------------------------------------|---------------------------------|----|-----
  
  (3:11)Chorus                                              Play x2 (3:11 to 3:29)
 G-|-9----------------9-7-5----------9----------------9-7-5--------|----|---------
 D-|-7-77777777777777-7-7-3-333-53---7-77777777777777-7-7-5--------|-X2-|---------
 A-|--------------------5---------5---------------------5-3-333333-|----|---------
 E-|---------------------------------------------------------------|----|---------

 (3:30)Chorus 2                  (3:33)      (3:34)                       (3:37)  Play x2 (3:30 to 3:47)
 G-|-9---9---9----------9---9------5----------9---9---9----------9---9------5--------|----|-------------
 D-|-7--7-7-7-7-777777---7-7-7-777-3-333-53---7--7-7-7-7-777777---7-7-7-777-5--------|-X2-|-------------
 A-|---------------------------------------5--------------------------------3-333333-|----|-------------
 E-|---------------------------------------------------------------------------------|----|-------------

  (3:47)End.
 G-----------------
 D--------------.--
 A-532----------2--
 E----53-253222----


 Dedicada a todos los fans de Iron Maiden en la Republica Dominicana
 y en todo el mundo.





Comments


Popular Iron Maiden tabs & chords
Assasin 2 Bass Tabs
Iron Maiden Bass Tabs
Wraith Child Bass Tabs
Doctor Doctor Chords
Aces High Tabs
Afarid To Shoot Strangers Tabs
Chains Of Misery 1 Tabs
Moonchild Tabs
No Prayer For The Dying 1 Tabs
The Prisoner 1 Tabs


Song lyrics



↑ Back to top | Tablatures and chords are parodies/interpretations of the original songs. You may use it for private study, scholarship, research or language learning purposes only
© 2014 AZChords.com Contact us | Privacy policy | DMCA | Add/correct tabs | Request tabs | Top 50 tabs