>
 >
The Thin Line Between Love And Hate

The Thin Line Between Love And Hate Guitar Tabs

Iron Maiden - The Thin Line Between Love And Hate chords, tabs, tablatures, lyrics

Guitar lessons | Add/correct | Request | Top 50 tabs Artists:  A B C D E F G H I J K L M N O P Q R S T U V W X Y Z 0-9

The Thin Line Between Love And Hate Guitar Tabs – Iron Maiden

CD, Sheet music, Poster

Do you like The Thin Line Between Love And Hate? Share with your friends now
Tabs
PROPS GO TO: Maiden hell

IRON MAIDEN
"The thin line between love and hate"
BRAVE NEW WORLD

Intro
   
   Fa5#           Fa5#                       Mi5                 Mi5                 
 e-----------------------------------------I----------------------------------------I
 b-----------------------------------------I----------------------------------------I
 g-----------------------------------------I----------------------------------------I
 d-----------------------------------------I----------------------------------------I
 a------4-4--0-0--2-2-------4-4--0-0-------I------2-2-----------------2-2-----------I
 E-2-2-----------------2-2------------4-4--I-0-0-------3-3--5-5--0-0-------3-3--5-5-I

   Si5                 Si5                   Sol5                     Re5  Si5        
 e-----------------------------------------I----------------------------------------I
 b-----------------------------------------I----------------------------------------I
 g-----------------------------------------I----------------------------------------I
 d------4-4--0-0--2-2-------4-4--0-0-------I----------------------------------------I
 a-2-2-----------------2-2------------4-4--I------5-5--4-4------------5-5--2-2--0-0-I
 E-----------------------------------------I-3-3------------5-5--3-3----------------I

     Fa5#       Fa5#        Mi5   Si5        Si5          La5 
 e-----------------------------I-----------------------------I  
 b-----------------------------I-----------------------------I  
 g-----------------------------I-----------------------------I   X2 (Riff 1) 
 d-----------------------------I-----------------------------I  
 a-----------------------------I-0h2-2-2-2--0h2-2-2-2-3-2-0--I  
 E-0h2-2-2-2--0h2-2-2-2-3-2-0--I-----------------------------I

        Fa5#            Si5   
 When a person turns to wrong
         Fa5#        Si5
 Is it a want to be, belong?
         Fa5#          Si5
 Part of things at any cost
         Do5#    Re5     Mi5(VII)/Mi5
 At what price a life is lost.
 
 At what pointdo we begin
 Fighter spirit a will to win
 But what makes a man decide
 Take the wrong or righteous road.
 
  Fa5#     Re5               Sol5     Mi5 
 There's a thin line between love and hate
        Fa5#       Re5          Sol5
 Wider divide that you can see between
      Mi5 
 good and bad.
           Fa5#        Re5              Sol5 
 There's a grey place between black and white
        Mi5        Fa5#      Re5
 But everyone does have the right to
            Sol5     Mi5
 Choose the path that he takes

 We all like to put the blame
 On society these things
 But what kind of good or and bad
 A new generation brings.
 
 Sometimes takes just more than that
 Tosurvive be good at heart
 There is evil in some of us
 No matter what will never change
 

Fa5#    Re5 
 I will hope
 
    Sol5      Mi5 
 My soul will fly

   Fa5#    Re5  
 So I will live
 
    Sol5-Mi5 
 for e   ver

 Fa5#       Re5 
 Heart will die

    Sol5      Mi5
 My soul will fly 

    Fa5#    Re5  
 And I will live

    Sol5-Mi5    
 for e   ver


 (Repeat) Riff 1)

 Just a few small tears between 
 Someone happy and one sad
 Just a thin line drawn between 
 Being a genius or insane
 
 At what age begin to leran
 Of which way out we will turn 
 There's along and winding road
 And the trail is there to burn

 (Repeat chorus)
 (Riff 1)
 (Repeat chorus)X2
 
 Repeat intro 8 times with thhis Riffs(Riff 1 at second time ; Riff 2 at fourth time)
 
Riff1 e---------------------------------------------------------------------------------I  
      b-0-2-3-5-3-2-3-5-3--0-2-3-5-3-2-3-5-3--0-2-3-5-3-2-3-5/7--0-2-3-5-3-2-3-2-3-5-3--I  
      g---------------------------------------------------------------------------------I    
      d---------------------------------------------------------------------------------I
      a---------------------------------------------------------------------------------I
      E---------------------------------------------------------------------------------I
 
Riff2 e-5-5-5-5-3-2-0-2-3-2--5-5-5-5-3-2-0-2-3-2--5-5-5-5-3-2-0-2-3-2--5-5-5-5-3-2-0-2-3-2-0-2--I  
      b-----------------------------------------------------------------------------------------I
      g-----------------------------------------------------------------------------------------I 
      d-----------------------------------------------------------------------------------------I
      a-----------------------------------------------------------------------------------------I
      E-----------------------------------------------------------------------------------------I
 
 Repeat this notes tenth times(before of the 5 time, Riff3;before of the 7 time, Riff4)

 e-------0------------0--I                                                
 b-------2------------2--I                               
 g-------2------------2--I                                                  
 d-------2------------2--I                                      
 a----4------------2-----I                  
 E-2------------0--------I                  
 
Riff3 e--------------------------------------------------I  
      b-9--10--10/12--12/14--12--10--9-10-9--------------I  
      g--------------------------------------9-----------I    
      d--------------------------------------9--9/11--9--I
      a--------------------------------------------------I
      E--------------------------------------------------I
 
Riff4 e--------------------------------------------------I  
      b-9--10--10/12--12/14--12--10--9-10-9--------------I  
      g--------------------------------------9--9/11--9--I    
      d--------------------------------------9-----------I
      a--------------------------------------------------I
      E--------------------------------------------------I

 
 There's athin line between love and hate 

 
Repeat Fa5# and Mi5 12 times(at 5 time and 9 time, Riff5)
 
Riff5 e----5-5-5-5--4-4-4-4-----------------7-7-7-7--5-5-5-5--4-4-4-5-4------I 
      b-7--------------------7-7-7-7-5-5-5------------------------------7-5--I  
      g----------------------------------------------------------------------I    
      d----------------------------------------------------------------------I
      a----------------------------------------------------------------------I
      E----------------------------------------------------------------------I
 
Repeat this notes until the finish(before of the 3 time, Riff3)

 e-------0------------0--I                                                
 b-------2------------2--I                               
 g-------2------------2--I                                                  
 d-------2------------2--I                                      
 a----4------------2-----I                  
 E-2------------0--------I                  

 There's a thin line between love and hate.


NOTE: Mi5(VII)/Mi5 with two or three guitars

           Mi5               Mi5(VII) with second guitar
      e----------I        I---------------I                                                
      b----------I        I---------------I                               
      g----------I        I------9--------I                                                  
      d-----2----I        I------9--------I                                      
      a-----2----I        I------7--------I                  
      E-----0----I        I---------------I                  





Comments


Popular Iron Maiden tabs & chords
Genghis Khan Bass Tabs
Holy Smoke 2 Bass Tabs
The Evil That Men Do 2 Bass Tabs
Can I Play With Madness 1 Chords
Deja Vu (Solo) Tabs
Fear Of The Dark 5 Tabs
Losfer Words 1 Tabs
Noddlin Donkey Blues Tabs
Phantom Of The Opera Live Tabs
Virus Tabs


Song lyrics



↑ Back to top | Tablatures and chords are parodies/interpretations of the original songs. You may use it for private study, scholarship, research or language learning purposes only
© 2014 AZChords.com Contact us | Privacy policy | DMCA | Add/correct tabs | Request tabs | Top 50 tabs