» » »

Iron Maiden, Rainmaker Tabs (ver.5)

Artists:  A B C D E F G H I J K L M N O P Q R S T U V W X Y Z # 

Rainmaker Tabs (ver.5)

Iron Maiden Tabs
Rating:
0/5 (0 votes)
Rainmaker lessons Tabs too difficult? Try these video lessons and learn fast
                (Riff)
I had to listen to the riff a hundred times over to work it out, so
a few comments wouldn't go a miss.  It's in the key of D minor.

Standard Tuning
(EADGBE)

E|---------------------------------------------------------------------------|
B|-------------15-------13---------------------------------------15-------13-|
G|----------14-----------------------15----12-14--------------14-------------|
D|-12-14-15-------15-14--------14-12-------------15--12-14-15-------15-14----|
A|---------------------------------------------------------------------------|
E|---------------------------------------------------------------------------|

E|---------------------------------------------------------------------------|
B|------------------------------------15-------13----------------15----------|
G|-------15----12-14---------------14-------------------------14----14-------|
D|-14-12-------------15---12-14-15-------15-14-------14-12-15----------15-12-|
A|---------------------------------------------------------------------------|
E|---------------------------------------------------------------------------|

E|----------------------|
B|----------15----------|
G|-------14----14-------|
D|-14-15----------15-12-|
A|----------------------|
E|----------------------|
            

comments powered by Disqus
↑ Back to top | Iron Maiden Tabs for Rainmaker. Lyrics for acoustic guitar and electric guitar. Tablatures and chords are parodies/interpretations of the original songs. You may use it for private study, scholarship, research or language learning purposes only