» » »

Iron Maiden, I've Got The Fire Bass tabs (ver.1)

Artists:  A B C D E F G H I J K L M N O P Q R S T U V W X Y Z # 

I've Got The Fire Bass tabs (ver.1)

Iron Maiden Tabs
 Rating:
4/5 (4 votes)
I've Got The Fire lessons Tabs too difficult? Try these video lessons and learn fast
                -------------------------------------------------------------------------------
			     I've Got The Fire - Iron Maiden
-------------------------------------------------------------------------------


Tuning: Standard (EADG)
This Tab is in exact order of the song, so play it top to bottom for the entire thing.

Guitar Intro

*Come in with those 3 notes before next part*

G--------------------------------------|-----------|
D----G---U---I---T---A---R-------------|-----------|
A--------------------------------------|--1--3-----|
E--------------------------------------|--------3--|

(Straight Eighth Notes)

G--------3---------3---5-3-------------|---------|
D----3-5---5-3-5-5---5-----5-3---------|---------|
A--5---------------------------5-4-3-1-|-1--3----|
E-------------------------------------3|-------3-|

(Straight Eighth Notes)
Play Twice
G-------|---------------------------------------------|
D-------|---------------------------------------------|
A-------|---------------------------------------------|
E-0-1-2-|-3-3-3-3-3-3-3-3-3-3-3-3-3-3-3-3-------------|

(Eighth Notes)

G-------|----------------------------------------------|
D-------|----------------------------------------------|
A-------|----------------------------------------------|
E-0-1-2-|-3-3-3-3-3-3-3-3-3-3-3-3-3-3-3-3--------------|

G------------------------------------------------------------------|
D------------------------------------------------------------------|
A-1-1-1-1-1-1-1-1-1-1-1-1-1-1-1-1-3-3-3-3-3-3-3-3-3-3-3-3-3-3-3-3--|
E------------------------------------------------------------------|

G--------------------------------------|
D------------------3-5-5-5-------------|
A--------------------------5-4-3-1-----|
E-3-3-3-3-3-3-3-3----------------------|

G-----------------------------------------------------------------|
D-----------------------------------------------------------------|
A---------------------------------1-1-1-1-1-1-1-1-1-1-1-1-1-1-1-1-|
E-3-3-3-3-3-3-3-3-3-3-3-3-3-3-3-3---------------------------------|

G-------------------------------------------------|---------|
D-------------------------------------------------|---------|
A-3-3-3-3-3-3-3-3-3-3-3-3-3-3-3-3-----------------|-1-------|
E---------------------------------3-3-3-3-3-3-3-3-|---3-1-3-|

G-----------------------------------------------------------------|
D-----------------------------------------------------------------|
A---------------------------------1-1-1-1-1-1-1-1-1-1-1-1-1-1-1-1-|
E-3-3-3-3-3-3-3-3-3-3-3-3-3-3-3-3---------------------------------|

G---------------------------------|---------------|
D---------------------------------|---------------|
A-3-3-3-3-3-3-3-3-3-3-3-3-3-3-3-3-|---1----1----1-|
E---------------------------------|-3----3----3---|


Play Twice
G--------3---------3---5-3-------------|---------|
D----3-5---5-3-5-5---5-----5-3---------|---------|
A--5---------------------------5-4-3-1-|-1--3----|
E-------------------------------------3|-------3-|

*Opening to Guitar Solo*
*Fill Leading in to Solo*
G----------------------------------|----------------|
D----------------------------------|3-5-5-5---------|
A----------------------------------|--------5-4-3-1-|
E----------------------------------|----------------|

G----------------------------------------------|
D----------------------------------------------|
A----------------------------------------------|
E-3-3-3-3-3-3-3-3-3-3-3-3-3-3-3-3--------------|

G------------------------------------------------------------------|
D------------------------------------------------------------------|
A-1-1-1-1-1-1-1-1-1-1-1-1-1-1-1-1-3-3-3-3-3-3-3-3-3-3-3-3-3-3-3-3--|
E------------------------------------------------------------------|

G--------------------------------------|
D------------------3-5-5-5-------------|
A--------------------------5-4-3-1-----|
E-3-3-3-3-3-3-3-3----------------------|

G-----------------------------------------------------------------|
D-----------------------------------------------------------------|
A---------------------------------1-1-1-1-1-1-1-1-1-1-1-1-1-1-1-1-|
E-3-3-3-3-3-3-3-3-3-3-3-3-3-3-3-3---------------------------------|

G----------------------------------|---------------|
D----------------------------------|---------------|
A-3-3-3-3-3-3-3-3-3-3-3-3-3-3-3-3--|---1----1----1-|
E----------------------------------|-3----3----3---|

G--------3---------3---5-3-------------|---------|
D----3-5---5-3-5-5---5-----5-3---------|---------|
A--5---------------------------5-4-3-1-|-1--3----|
E-------------------------------------3|-------3-|

Play Twice
G-------|---------------------------------------------|
D-------|---------------------------------------------|
A-------|---------------------------------------------|
E-0-1-2-|-3-3-3-3-3-3-3-3-3-3-3-3-3-3-3-3-------------|

Verse  (Eighth Notes)

G-------|----------------------------------------------|
D-------|----------------------------------------------|
A-------|----------------------------------------------|
E-0-1-2-|-3-3-3-3-3-3-3-3-3-3-3-3-3-3-3-3--------------|

G------------------------------------------------------------------|
D------------------------------------------------------------------|
A-1-1-1-1-1-1-1-1-1-1-1-1-1-1-1-1-3-3-3-3-3-3-3-3-3-3-3-3-3-3-3-3--|
E------------------------------------------------------------------|

G--------------------------------------|
D------------------3-5-5-5-------------|
A--------------------------5-4-3-1-----|
E-3-3-3-3-3-3-3-3----------------------|

G-----------------------------------------------------------------|
D-----------------------------------------------------------------|
A---------------------------------1-1-1-1-1-1-1-1-1-1-1-1-1-1-1-1-|
E-3-3-3-3-3-3-3-3-3-3-3-3-3-3-3-3---------------------------------|

G-------------------------------------------------|---------|
D-------------------------------------------------|---------|
A-3-3-3-3-3-3-3-3-3-3-3-3-3-3-3-3-----------------|-1-------|
E---------------------------------3-3-3-3-3-3-3-3-|---3-1-3-|

G-----------------------------------------------------------------|
D-----------------------------------------------------------------|
A---------------------------------1-1-1-1-1-1-1-1-1-1-1-1-1-1-1-1-|
E-3-3-3-3-3-3-3-3-3-3-3-3-3-3-3-3---------------------------------|

G---------------------------------|---------------|
D---------------------------------|---------------|
A-3-3-3-3-3-3-3-3-3-3-3-3-3-3-3-3-|---1----1----1-|
E---------------------------------|-3----3----3---|


Play Twice
G--------3---------3---5-3-------------|---------|
D----3-5---5-3-5-5---5-----5-3---------|---------|
A--5---------------------------5-4-3-1-|-1--3----|
E-------------------------------------3|-------3-|

Outro
            
Submit corrections

comments powered by Disqus
↑ Back to top | Iron Maiden Bass for I've Got The Fire. Lyrics for acoustic guitar and electric guitar. Tablatures and chords are parodies/interpretations of the original songs. You may use it for private study, scholarship, research or language learning purposes only