» » »

Iron Maiden, Isle Of Avalon Bass tabs (ver.1)

Artists:  A B C D E F G H I J K L M N O P Q R S T U V W X Y Z # 

Isle Of Avalon Bass tabs (ver.1)

Iron Maiden Tabs
 Rating:
4/5 (4 votes)
Isle Of Avalon lessons Tabs too difficult? Try these video lessons and learn fast
                ----------------------------------------------------------------------------
			  Iron Maiden - Isle of Avalon (bass (tab)
---------------------------------------------------------------------------


Tuning: Standard. EADG

Intro:

G|---------------------------------------------------------------------------|
D|-----------------------------------777777777777777777-(many times)---------|
A|--77777777777777777-(many times)-------------------------------------------|
E|---------------------------------------------------------------------------|

Lead into verse:

G|---------------------------------------------------------------------------|
D|---------------------------------------------------------------------------|
A|----9--10-10----9-10-12-10----9--10-12-----9--9--10--9---------------------|
E|---------------------------------------------------------------------------|

Verse:

G|---------------------------------------------------------------------------|
D|---------------------------------------------------------------------------|
A|------------------3333333---55555555--------------------3333333------------|
E|-00000---3333333----------------------00000000--333333-----------111111111-|

Chorus (you can choose between either measure to play during the chorus):

G|---------------------------------------------------------------------------|
D|---------------------------------------------------------------------------|
A|------------------------------------------------------3----5---------------|
E|--000000000000000000000000000000000----------------------------------------|

G|---------------------------------------------------------------------------|
D|---------------------------------------------------------------------------|
A|----7777777----666666----5555555------44444444--------3-----5--------------|
E|---------------------------------------------------------------------------|

Rhythm breakdown for dave murray's solo:

G|---------------------------------------------------------------------------|
D|---------------------------------------------------------------------------|
A|-------7-7--5-5--3---------2-----------------------------------------------|
E|---0-----------------0-2-3---3-2-3-----------------------------------------|

G|---------------------------------------------------------------------------|
D|--------7-7--5-5--3---------2----------------------------------------------|
A|---0-----------------0-2-3----3-2-3----------------------------------------|
E|---------------------------------------------------------------------------|

End With an E before entering this rhythm breakdown for adrian smith's solo. The bass 
the riff:

G|--------------------------------------------------------------------------|
D|-----------------4----------------7p4-------------------------------------|
A|--------5h7--------5--------5h7-------5-----------------------------------|
E|--0-5h7------0-0------0-5h7-----0-----------------------------------------|

End with this brief line run:

G|----------------4------------------4-6-----------------------------------|
D|----4-5---4-5-7--------4-5-7-4-5-7---------------------------------------|
A|--7-----7----------------------------------------------------------------|
E|-------------------------------------------------------------------------|

Play the lead into the verse

Intro

Verse

Chorus

End With:

G|--------------------------------------------------|
D|--------------------------------------------------|
A|--3-------5----------------------77777777777777---|
E|------------------00000000000000----------------00|

The song structure is very straightforward. Email me if there are any problems, comments 
concerns. Thank you! Up the Irons!

| /  slide up
| \  slide down
| h  hammer-on
| p  pull-off
| ~  vibrato
| +  harmonic
| x  Mute note
            
Submit corrections

comments powered by Disqus
↑ Back to top | Iron Maiden Bass for Isle Of Avalon. Lyrics for acoustic guitar and electric guitar. Tablatures and chords are parodies/interpretations of the original songs. You may use it for private study, scholarship, research or language learning purposes only