>
 >
Invasion

Invasion Bass Tabs

Iron Maiden - Invasion chords, tabs, tablatures, lyrics

Guitar lessons | Add/correct | Request | Top 50 tabs Artists:  A B C D E F G H I J K L M N O P Q R S T U V W X Y Z 0-9

Invasion Bass Tabs – Iron Maiden

CD, Sheet music, Poster

Do you like Invasion? Share with your friends now
Bass Tabs
Bass Tab for Iron Maiden - Invasion

   Drums Enter              Repeat once
G||-------|-------|-------||------------------------|------------------------|
D||-------|-------|-------||*------------------7----|------------------------|
A||-------|-------|-------||*--7----7----5--7-------|-------------------5----|
E||-------|-------|-------||------------------------|--5--5--5--8----5-------|

   
-----------------------|------------------------|-----------------------|
------------------7----|------------------------|------------------7----|
--7----7----5--7-------|-------------------5----|--7----7----5--7-------|
-----------------------|--5--5--5--8----5-------|-----------------------|

   
------------------------|-----------------------|------------------------|
------------------------|------------------7----|------------------------|
-------------------5----|--7----7----5--7-------|-------------------5----|
--5--5--5--8----5-------|-----------------------|--5--5--5--8----5-------|

 
-----------------------|-----------------------|-----------------------|
-----------------------|-----------------------|-----------------------|
--3----3--3----3--3----|-----------------------|--3----3--3----3--3----|
-----------------------|--3----3--1----1--1----|-----------------------|

   
------------------------||--------------------------------|
-----------------------*||--------------------------------|
-----------------------*||--------------------------------|
--3----3--1----1--1-----||--3----3----3----3----3----3----|

  
-----------------------|------------------------|-----------------------|
------------------7----|------------------------|------------------7----|
--7----7----5--7-------|-------------------5----|--7----7----5--7-------|
-----------------------|--5--5--5--8----5-------|-----------------------|
                           
                          Norsemen are coming...  
------------------------|-------------------------|-------------------------|
------------------------|--7----7--9----10--------|--7----7--9----10--------|
-------------------5----|-------------------------|-------------------------|
--5--5--5--8----5-------|-------------------------|-------------------------|

   
-------------------------|-------------------------|-------------------------|
--7----7--9----10--------|--10----10--9----7-------|--7----7--9----10--------|
-------------------------|-------------------------|-------------------------|
-------------------------|-------------------------|-------------------------|

    
-------------------------|-------------------------|-------------------------|
--7----7--9----10--------|--7----7--9----10--------|--10----10--9----7-------|
-------------------------|-------------------------|-------------------------|
-------------------------|-------------------------|-------------------------|

Rapping and Pillaging...   
----------------------------|-----------------------|-----------------------|
----------------------------|-----------------------|-----------------------|
--10----10--10----10--10----|--8----8--8-------7----|--5-------5-------3----|
----------------------------|-----------------------|-----------------------|

 
-----------------------|----------------------------|-----------------------|
-----------------------|----------------------------|-----------------------|
--5-------5-------3----|--10----10--10----10--10----|--8----8--8-------7----|
-----------------------|----------------------------|-----------------------|


-----------------------|-----------------------|--------------------------|
-----------------------|-----------------------|--------------------------|
--5-------5-------3----|--5-------5-------3----|--3--3--2--2--3--3--2--2--|
-----------------------|-----------------------|--------------------------|


----------------------|------------------------|------------------------|
----------------------|------------------------|------------------------|
----------------------|--2----2----2--2-----2--|--2----2----2--2-----3--|
--3----3----1----1----|------------------------|------------------------|


------------------------|------------------------|------------------------|
------------------------|------------------------|------------------------|
--3----3----3--3-----3--|--3----3----3--3-----2--|--2----2----2--2--2--2--|
------------------------|------------------------|------------------------|

 
------------------------|------------------------|------------------------|
------------------------|------------------------|------------------------|
--2----2----2--2-----3--|--3----3----3--3-----3--|--3----3----3--3-----0--|
------------------------|------------------------|------------------------|


------------------------|------------------------|------------------------|
------------------------|------------------------|------------------------|
--0----0----0--0-----0--|--0----0----0--0-----1--|--1----1----1--1-----1--|
------------------------|------------------------|------------------------|


------------------------|------------------------|------------------------|
------------------------|------------------------|------------------------|
--1----1----1--1-----0--|--0----0----0--0-----0--|--0----0----0--0-----1--|
------------------------|------------------------|------------------------|

    
------------------------|------------------------|------------------------|
------------------------|------------------------|------------------------|
--1----1----1--1-----1--|--1----1----1--1-----0--|--3---------------------|
------------------------|------------------------|-------3--3-----3--1----|

 
------------------------|------------------------|------------------------|
------------------------|------------------------|------------------------|
------------------------|--3---------------------|------------------------|
--1--1-----1--1----3----|-------3--3-----3--1----|--1--1-----1--1----3----|

   
-----------------------|------------------------|-----------------------|
------------------7----|------------------------|------------------7----|
--7----7----5--7-------|-------------------5----|--7----7----5--7-------|
-----------------------|--5--5--5--8----5-------|-----------------------|

 
------------------------|-----------------------|------------------------|
------------------------|------------------7----|------------------------|
-------------------5----|--7----7----5--7-------|-------------------5----|
--5--5--5--8----5-------|-----------------------|--5--5--5--8----5-------|

   
-----------------------|------------------------|-----------------------|
------------------7----|------------------------|-----------------------|
--7----7----5--7-------|-------------------5----|--3----3--3----3--3----|
-----------------------|--5--5--5--8----5-------|-----------------------|

  
-----------------------|-----------------------|-----------------------|
-----------------------|-----------------------|-----------------------|
-----------------------|--3----3--3----3--3----|-----------------------|
--3----3--1----1--1----|-----------------------|--3----3--1----1--1----|

   
-----------------------|------------------------|-----------------------|
------------------7----|------------------------|------------------7----|
--7----7----5--7-------|-------------------5----|--7----7----5--7-------|
-----------------------|--5--5--5--8----5-------|-----------------------|

  
------------------------|-----------------------|------------------------|
------------------------|------------------7----|------------------------|
-------------------5----|--7----7----5--7-------|-------------------5----|
--5--5--5--8----5-------|-----------------------|--5--5--5--8----5-------|

    
-----------------------|------------------------|-----------------------|
------------------7----|------------------------|-----------------------|
--7----7----5--7-------|-------------------5----|--3----3--3----3--3----|
-----------------------|--5--5--5--8----5-------|-----------------------|


-----------------------|-----------------------|-----------------------|
-----------------------|-----------------------|-----------------------|
-----------------------|--3----3--3----3--3----|-----------------------|
--3----3--1----1--1----|-----------------------|--3----3--1----1--1----|

   
-----------------------|------------------------|-----------------------|
------------------7----|------------------------|------------------7----|
--7----7----5--7-------|-------------------5----|--7----7----5--7-------|
-----------------------|--5--5--5--8----5-------|-----------------------|

                          Repeat Once
------------------------||-------------------------|------------------------|
------------------------||*------------------5-----|------------------5-----|
-------------------5----||*--5-------5-------------|--5-------5-------------|
--5--5--5--8----5-------||-------------------------|------------------------|

 
------------------------|------------------------|------------------------|
------------------------|------------------5-----|------------------5-----|
--3----0--3-----0--3----|--5-------5-------------|--5-------5-------------|
------------------------|------------------------|------------------------|

     
------------------------|------------------------|-------------------------||
------------------5-----|------------------------|------------------------*||
--5-------5-------------|--3----0--3-----0--3----|--0--3-----0--3----3----*||
------------------------|------------------------|-------------------------||

        
------------------------|------------------------|-------------------|
------------------------|------------------------|--0----------------|
--3----0--3-----0--3----|--0--3-----0--3----3----|--5----------------|
------------------------|------------------------|-------------------|

           
-------------------|-------------------|-------------------|
-------------------|-------------------|-------------------|
-------------------|-------------------|-------------------|
-------------------|-------------------|-------------------|

Norsemen are coming...
-------------------------|-------------------------|-------------------------|
--7----7--9----10--------|--7----7--9----10--------|--7----7--9----10--------|
-------------------------|-------------------------|-------------------------|
-------------------------|-------------------------|-------------------------|

  
-------------------------|-------------------------|-------------------------|
--10----10--9----7-------|--7----7--9----10--------|--7----7--9----10--------|
-------------------------|-------------------------|-------------------------|
-------------------------|-------------------------|-------------------------|

  
-------------------------|-------------------------|
--7----7--9----10--------|--10----10--9----7-------|
-------------------------|-------------------------|
-------------------------|-------------------------|

Raping and pillaging..
----------------------------|-----------------------|-----------------------|
----------------------------|-----------------------|-----------------------|
--10----10--10----10--10----|--8----8--8-------7----|--5-------5-------3----|
----------------------------|-----------------------|-----------------------|

 
-----------------------|----------------------------|-----------------------|
-----------------------|----------------------------|-----------------------|
--5-------5-------3----|--10----10--10----10--10----|--8----8--8-------7----|
-----------------------|----------------------------|-----------------------|

   
-----------------------|-----------------------|--------------------------|
-----------------------|-----------------------|--------------------------|
--5-------5-------3----|--5-------5-------3----|--3--3--2--2--3--3--2--2--|
-----------------------|-----------------------|--------------------------|

                       Outro Solo
----------------------|------------------------|------------------------|
----------------------|------------------------|------------------------|
----------------------|--2----2----2--2-----2--|--2----2----2--2-----3--|
--3----3----1----1----|------------------------|------------------------|


------------------------|------------------------|------------------------|
------------------------|------------------------|------------------------|
--3----3----3--3-----3--|--3----3----3--3-----2--|--2----2----2--2--2--2--|
------------------------|------------------------|------------------------|

 
------------------------|------------------------|------------------------|
------------------------|------------------------|------------------------|
--2----2----2--2-----3--|--3----3----3--3-----3--|--3----3----3--3-----0--|
------------------------|------------------------|------------------------|


------------------------|------------------------|------------------------|
------------------------|------------------------|------------------------|
--0----0----0--0-----0--|--0----0----0--0-----1--|--1----1----1--1-----1--|
------------------------|------------------------|------------------------|

 
------------------------|------------------------|------------------------|
------------------------|------------------------|------------------------|
--1----1----1--1-----0--|--0----0----0--0-----0--|--0----0----0--0-----1--|
------------------------|------------------------|------------------------|

   
------------------------|------------------------|------------------------|
------------------------|------------------------|------------------------|
--1----1----1--1-----1--|--1----1----1--1-----0--|--3---------------------|
------------------------|------------------------|-------3--3-----3--1----|

   
------------------------|------------------------|------------------------|
------------------------|------------------------|------------------------|
------------------------|--3---------------------|------------------------|
--1--1-----1--1----3----|-------3--3-----3--1----|--1--1-----1--1----3----|

             
--------------------|-------||
--------------------|-------||
--7-----------------|-------||
--0-----------------|-------||





Comments


Popular Iron Maiden tabs & chords
Age Of Innocence Bass Tabs
Bring Your Daughter To The Slaughter 4 Bass Tabs
The Evil That Men Do 2 Bass Tabs
Flash Of The Blade Drum Tabs
Die With Your Boots On 1 Tabs
Journeyman Tabs
Journeyman 1 Tabs
Lord Of Light 1 Tabs
Lord Of Light 2 Tabs
The Evil That Men Do Tabs


Song lyrics



↑ Back to top | Tablatures and chords are parodies/interpretations of the original songs. You may use it for private study, scholarship, research or language learning purposes only
© 2014 AZChords.com Contact us | Privacy policy | DMCA | Add/correct tabs | Request tabs | Top 50 tabs