>
 >
Heaven Can Wait

Heaven Can Wait Bass Tabs

Iron Maiden - Heaven Can Wait chords, tabs, tablatures, lyrics

Guitar lessons | Add/correct | Request | Top 50 tabs Artists:  A B C D E F G H I J K L M N O P Q R S T U V W X Y Z 0-9

Heaven Can Wait Bass Tabs – Iron Maiden

CD, Sheet music, Poster

Do you like Heaven Can Wait? Share with your friends now
Bass TabsTabsTabs v2
INTRO

 Play this three times

G--7-9-7-9---7---9---7---7-7-9-7--|--5-7-5-7---5---7---5----5-5-7-5--|
D--7-7-7-7---7---7---7---7-7-7-7--|--5-5-5-5---5---5---5----5-5-5-5--|
A---------------------------------|----------------------------------|
E---------------------------------|----------------------------------|


G--7-9-7-9---7---9---7---7-7-9-7--|--10-12-10-12---10---12-14-12-14---12--|
D--7-7-7-7---7---7---7---7-7-7-7--|--10-10-10-10---10---12-12-12-12---12--|
A---------------------------------|---------------------------------------|
E---------------------------------|---------------------------------------|


 And play this twice
G---------------------------------|----------------------------------|
D--7-9-7-9---7---9---7---7-7-9-7--|--5-7-5-7---5---7---5----5-5-7-5--|
A--7-7-7-7---7---7---7---7-7-7-7--|--5-5-5-5---5---5---5----5-5-5-5--|
E---------------------------------|----------------------------------|


G---------------------------------|---------------------------------------|
D--7-9-7-9---7---9---7---7-7-9-7--|--10-12-10-12---10---12-14-12-14---12--|
A--7-7-7-7---7---7---7---7-7-7-7--|--10-10-10-10---10---12-12-12-12---12--|
E---------------------------------|---------------------------------------|                    


  Vocals 
G--------------------------------------|--------------------------------------|
D--------------------------------------|--------------------------------------|
A--5--5--5--5--5--5--5--5--5--5--5--5--|--5--5--5--5--5--5--5--5--5--5--5--5--|
E--------------------------------------|--------------------------------------|


G-------------------------------------------------|--------------------------------------|
D--5--4---------------5--4---------------5--4-----|--------------------------------------|
A--------7--5----7----------7--5----7----------5--|--5--5--5--5--5--5--5--5--5--5--5--5--|
E-------------------------------------------------|--------------------------------------|


G--------------------------------------|--------------------------------------|
D--------------------------------------|--------------------------------------|
A--5--5--5--5--5--5--5--5--5--5--5--5--|--5--5--5--5--5--5--5--5--5--5--5--5--|
E--------------------------------------|--------------------------------------|


G-------------------------------------------------|--------------------------------------|
D--5--4---------------5--4---------------5--4-----|--------------------------------------|
A--------7--5----7----------7--5----7----------5--|--5--5--5--5--5--5--5--5--5--5--5--5--|
E-------------------------------------------------|--------------------------------------|


G--------------------------------------------|--------------------------------------------|
D--------------------------------------------|--------------------------------------------|
A--1--1--1--1--1--1--1--1--1--1--1--1--1--1--|--1--1--1--1--1--1--1--1--1--1--1--1--1--1--|
E--------------------------------------------|--------------------------------------------|


G-----------------------------------------------|---------------------------------|
D-----------------------------------------------|--3--2---------------------------|
A--3--3--3--3--3--3--3--3--3--3--3--3--3--3--3--|--------5--3--------3------------|
E-----------------------------------------------|---------------------------------|


 Chorus (2x)
G--------------------------------------|--------------------------------------|
D--------------------------------------|--------------------------------------|
A--5--5--5--5--5--5--5--5--5--5--5--5--|--3--3--3--3--3--3--3--3--3--3--3--3--|
E--------------------------------------|--------------------------------------|


G--------------------------------------|--------------------------------------|
D--------------------------------------|--------------------------------------|
A--------------------------------------|--------------3--3--3--5--5--5--5--5--|
E--1--1--1--1--1--1--1--1--1--1--1--1--|--3--3--3--3--------------------------|


Repeat Vocals
Repeat Chorus


 Solo-Riff (2x)

  I don't know exactly what he does here, but is something like this

G------------------------------------|------------------------9-7--------|
D-------9---7---5---7---9---7---5----|----9---7---5---7---9-------9-7----|
A--7--7---7---7---7---7---7---7---7--|--7---7---7---7---7---7---------5--|
E------------------------------------|-----------------------------------|


G------------------------------------|-----------------------------------|
D------9---7---5---7---9---7---5-----|----9---7---5---7---9--------------|
A--7--7---7---7---7---7---7---7---7--|--7---7---7---7---7---7--7-----3---|
E------------------------------------|-----------------------------------|


G-----------------------------------|-----------------------------------|
D------5---4---5---4---5---4---5----|------5---4---5---4---5---4---5----|
A--3-3---3---3---3---3---3---3---3--|--3-3---3---3---3---3---3---3---0--|
E-----------------------------------|-----------------------------------|


G-----------------------------------|-----------------------------------|
D------5---4---5---4---5---4---5----|------5---4---5---4---5---4-4------|
A--0-0---0---0---0---0---0---0------|----0---0---0---0---0---0-----5-7--|
E--------------------------------0--|--0--------------------------------|


   Take                    my     hand                  I'll...
G------------------------------|------------------------------|
D------------------------------|------------------------------|
A--7---7-7-7---7-7-7---7-7-10--|--5---5-5-5---5-5-5---5-5-10--|
E------------------------------|------------------------------|


...lead you to the promised land
G-----------------------------|--------------------------|
D-----------------------------|--------------------------|
A--7---7-7-7---7-7-7---7-7-7--|--3---3-3-3----5---5-5-5--|
E-----------------------------|--------------------------|


   Take                    my     hand                  I'll...
G------------------------------|------------------------------|
D------------------------------|------------------------------|
A--7---7-7-7---7-7-7---7-7-10--|--5---5-5-5---5-5-5---5-5-10--|
E------------------------------|------------------------------|


   give you immortality
G-----------------------------|--------------------------|
D-----------------------------|--------------------------|
A--7---7-7-7---7-7-7---7-7-7--|--3---3-3-3----5---5-5-5--|
E-----------------------------|--------------------------|


   eternal                       youth                I'll...
G-----------------------------|-----------------------------|
D-----------------------------|-----------------------------|
A--0---0-0-0---0-0-0---0-0-3--|-----------------------------|
E-----------------------------|--3---3-3-3---3-3-3---3-3----|


...take you to the other side                        to...
G-----------------------------|--------------------------|
D-----------------------------|--------------------------|
A--0---0-0-0---0-0-0---0-0-0--|--------------------------|
E-----------------------------|--1---1-1-1----3---3-3-3--|


...see                   the     truth                 the...
G-----------------------------|-----------------------------|
D-----------------------------|-----------------------------|
A--0---0-0-0---0-0-0---0-0-3--|-----------------------------|
E-----------------------------|--3---3-3-3---3-3-3---3-3----|


...path for you is decided
G-----------------------------|--------------------------|
D-----------------------------|--------------------------|
A--0---0-0-0---0-0-0---0-0-0--|--------------------------|
E-----------------------------|--1---1-1-1----3---3-3-3--|


 Bridge
G--------------------------------|--------------------------------|
D--------------------------------|--------------------------------|
A--5---5-5-5---5-5-5---5-5-5-----|--5---5-5-5---5-5-5---5-5-5-----|
E--------------------------------|--------------------------------|


   OH      OH      OH               OH  OH  OH  OH  OH       OH  OH
G--------------------------------|--------------------------------|
D--------------------------------|--------------------------------|
A--5---5-5-5---5-5-5---5-5-5-----|--5---5-5-5---5-5-5---5-5-5-----|
E--------------------------------|--------------------------------|


   OH      OH      OH               OH  OH  OH  OH  OH
G--------------------------------|----------------------|
D--------------------------------|----------------------|
A--5---5-5-5---5-5-5---5-5-5-----|--5---5-5-5--3--3-----|
E--------------------------------|----------------------|


   OH      OH      OH            OH  OH  OH  OH  OH    OH  OH
G-----------------------------|-----------------------------|
D-----------------------------|-----------------------------|
A--5---5-5-5---5-5-5---5-5-5--|--1---1-1-1---1-1-1---1-1-1--|
E-----------------------------|-----------------------------|


   OH      OH      OH            OH  OH  OH  OH  OH
G-----------------------------|---------------------------|
D-----------------------------|---------------------------|
A--3---3-3-3---3-3-3---3-3-3--|--5---5-5-5---5-5-5--0--3--|
E-----------------------------|---------------------------|


Repeat Solo-Riff

 Lick (4x)
G----------------|----------------|----------------|----------------|
D--3--3-2---2----|--3--3-2---2----|--3--3-2---2----|--3--3-2---2----|
A---------5---3--|---------5---3--|---------5---3--|---------5---3--|
E----------------|----------------|----------------|----------------|


Repeat Vocals
Repeat Chorus


 Play this twice
G---------------------------------|----------------------------------|
D--7-9-7-9---7---9---7---7-7-9-7--|--5-7-5-7---5---7---5----5-5-7-5--|
A--7-7-7-7---7---7---7---7-7-7-7--|--5-5-5-5---5---5---5----5-5-5-5--|
E---------------------------------|----------------------------------|


G---------------------------------|---------------------------------------|
D--7-9-7-9---7---9---7---7-7-9-7--|--10-12-10-12---10---12-14-12-14---12--|
A--7-7-7-7---7---7---7---7-7-7-7--|--10-10-10-10---10---12-12-12-12---12--|
E---------------------------------|---------------------------------------|


 Play this twice
G--7-9-7-9---7---9---7---7-7-9-7--|--5-7-5-7---5---7---5----5-5-7-5--|
D--7-7-7-7---7---7---7---7-7-7-7--|--5-5-5-5---5---5---5----5-5-5-5--|
A---------------------------------|----------------------------------|
E---------------------------------|----------------------------------|


G--7-9-7-9---7---9---7---7-7-9-7--|--10-12-10-12---10---12-14-12-14---12--|
D--7-7-7-7---7---7---7---7-7-7-7--|--10-10-10-10---10---12-12-12-12---12--|
A---------------------------------|---------------------------------------|
E---------------------------------|---------------------------------------|


Outro:                                        Let ring...
G-----------------|--------------------------------------|
D--5-7-5-3-----3--|--2-2-2-3---2-------------------------|
A----------5------|----------------3-5--------5----------|
E-----------------|--------------------------------------|





Comments


Popular Iron Maiden tabs & chords
Brave New World 4 Bass Tabs
My Generation Bass Tabs
Wrath Child Bass Tabs
2 Minutes To Midnight Tabs
Cross Eyed Mary Intro Tabs
Stranger In A Stranger Land Tabs
The Evil That Men Do 1 Tabs
The Wicker Man 1 Tabs
Wasted Years Tabs
Fear Of The Dark Ukulele


Song lyrics



↑ Back to top | Tablatures and chords are parodies/interpretations of the original songs. You may use it for private study, scholarship, research or language learning purposes only
© 2014 AZChords.com Contact us | Privacy policy | DMCA | Add/correct tabs | Request tabs | Top 50 tabs