» » »

Iron Maiden, Bring Your Daughter To The Slaughter Bass tabs (ver.4)

Artists:  A B C D E F G H I J K L M N O P Q R S T U V W X Y Z # 

Bring Your Daughter To The Slaughter Bass tabs (ver.4)

Iron Maiden Tabs
Rating:
0/5 (0 votes)
Bring Your Daughter To The Slaughter lessons Tabs too difficult? Try these video lessons and learn fast
                Tuning: Standard (E,A,D,G)


Intro:
G|--------------------|
D|--------------------|
A|-5-----5-----5------|
E|----3-----3-----3-0-|

Main Riff:
G|---------------------------------|
D|---------------------------------|
A|---------------------------------|
E|-0-0-0-0-0-0-0-0-0-0-0-0-0-0-0-0-| x4

Verse:
G|---------------------------------------------------------|
D|---------------------------------------------------------|
A|---------------------------------------------------------|
E|-0-0-0-0-0-0-0-0-0-0-0-0-0-0-0-2-3-3-3-3-3-3-3-3-3-3-3-3-|

G|---------------------------------------------------------|
D|---------------------------------------------------------|
A|---------0-0-0-0-0-0-0-0-0-0-0-0-0-0-0-0-0-0-0-0-0-0-0-0-|
E|-3-3-3-3-------------------------------------------------|

G|---------|
D|---------|
A|-0-0-0-0-|
E|---------| x4

Chorus:
G|---------------------------------------------------------|
D|---------------------------------------------------------|
A|-----------------------3-3-3-3-3-3-3-3-3-0-0-0-0-0-0-0-0-|
E|-3--0-0-0-0-3--0-0-0-0-----------------------------------|

G|------------------------------------------|
D|------------------------------------------|
A|-5-5-5-5-5-5-5-5-0-0-0-0-0-0--------------|
E|-----------------------------5-3-0-0-3--0-| x2

G|--------|
D|--------|
A|--------|
E|-5-3--0-|

Verse:
G|---------------------------------------------------------|
D|---------------------------------------------------------|
A|---------------------------------------------------------|
E|-0-0-0-0-0-0-0-0-0-0-0-0-0-0-0-2-3-3-3-3-3-3-3-3-3-3-3-3-|

G|---------------------------------------------------------|
D|---------------------------------------------------------|
A|---------0-0-0-0-0-0-0-0-0-0-0-0-0-0-0-0-0-0-0-0-0-0-0-0-|
E|-3-3-3-3-------------------------------------------------|

G|---------|
D|---------|
A|-0-0-0-0-|
E|---------| x4

Chorus:
G|---------------------------------------------------------|
D|---------------------------------------------------------|
A|-----------------------3-3-3-3-3-3-3-3-3-0-0-0-0-0-0-0-0-|
E|-3--0-0-0-0-3--0-0-0-0-----------------------------------|

G|------------------------------------------|
D|------------------------------------------|
A|-5-5-5-5-5-5-5-5-0-0-0-0-0-0--------------|
E|-----------------------------5-3-0-0-3--0-| x2

G|--------|
D|--------|
A|--------|
E|-5-3--0-|

Intermission:
G|
D|
A|---------5-5---|
E|-3-3-----------|

G|--------------------|
D|--------------------|
A|-5-----5-----5------|
E|----3-----3-----3-0-|

Solo:
G|
D|
A|-----------------3-3-3-3-3-3-3-3--|
E|-0-0-0-0-0-0-0-0------------------|

G|
D|
A|-0-0-0-0-0-0-0-0-5-5-5-5-5-5-----------|
E|------------------------------3-3--0---|

Slow part:
G|---------------------------------|
D|---------------------------------|
A|---------------------------------|
E|-0-0-0-0-0-0-0-0-0-0-0-0-0-0-0-0-| x8

G|---------------------------------------------------------|
D|---------------------------------------------------------|
A|---------------------------------------------------------|
E|-0-0-0-0-0-0-0-0-0-0-0-0-0-0-0-2-3-3-3-3-3-3-3-3-3-3-3-3-|

G|---------------------------------------------------------|
D|---------------------------------------------------------|
A|---------0-0-0-0-0-0-0-0-0-0-0-0-0-0-0-0-0-0-0-0-0-0-0-0-|
E|-3-3-3-3-------------------------------------------------|

G|---------|
D|---------|
A|-0-0-0-0-|
E|---------| x3

G|---------------------------------------------------------|
D|---------------------------------------------------------|
A|---------------------------------------------------------|
E|-0-0-0-0-0-0-0-0-0-0-0-0-0-0-0-2-3-3-3-3-3-3-3-3-3-3-3-3-|

G|------------------------------|
D|------------------7-5---5-----|
A|---------0--0--0------7---7-5-|
E|-3-3-3-3----------------------|

Chorus:
G|---------------------------------------------------------|
D|---------------------------------------------------------|
A|-----------------------3-3-3-3-3-3-3-3-3-0-0-0-0-0-0-0-0-|
E|-3--0-0-0-0-3--0-0-0-0-----------------------------------|

G|------------------------------------------|
D|------------------------------------------|
A|-5-5-5-5-5-5-5-5-0-0-0-0-0-0--------------|
E|-----------------------------5-3-0-0-3--0-| x3

G|--------|
D|--------|
A|--------|
E|-5-3--0-| x3

In the end you can just play whatever you want as long as it is in E and you finush with 
the last tone as an E.
            
Submit corrections

comments powered by Disqus
↑ Back to top | Iron Maiden Bass for Bring Your Daughter To The Slaughter. Lyrics for acoustic guitar and electric guitar. Tablatures and chords are parodies/interpretations of the original songs. You may use it for private study, scholarship, research or language learning purposes only