» » »

Iron Maiden, 2 Minutes To Midnight (Solo Ver 2) Tabs (ver.1)

Artists:  A B C D E F G H I J K L M N O P Q R S T U V W X Y Z # 

2 Minutes To Midnight (Solo Ver 2) Tabs (ver.1)

Iron Maiden Tabs
Rating:
0/5 (0 votes)
2 Minutes To Midnight (Solo Ver 2) lessons Tabs too difficult? Try these video lessons and learn fast
                2 Minutes To Midnight Solo

Daves Solo
----------------------|
----------------------|
--7---5-7-5-4-5-------|
----------------5--7--|
----------------------|
----------------------|

--------------------------------------------------|
--5--6--8--5--6--8-5-6-8-5-6-8--------------------|
-------------------------------8-7-5-7-8--9---12--|
--------------------------------------------------|
--------------------------------------------------|
--------------------------------------------------|

-------15---15-12-15-12---------15-----------|
--15--------------------15---15----15-13-----|
-----------------------------------------14--|
---------------------------------------------|
---------------------------------------------|
---------------------------------------------|

--------------------------------------17-17-19-19-20---20-20-17--|
--12-12-13-13-15-15-17-17-18-18-20-20----------------------------|

Adrians solo
--------------------------------------|
--------------------------------------|
--14-14-12-14---12-11-------11--------|
----------------------14-12----12-11--|
--------------------------------------|
--------------------------------------|

------------------------------------------|
--17-16-15----15--------------------------|
-----------17----17-16-15-17-15-----------|
--------------------------------17-15-----|
--------------------------------------17--|
------------------------------------------|

------------------------|
--------------------15--|
--------------12-14-----|
--------12-14-----------|
--12-14-----------------|
------------------------|

---------------------------------------|
---------------------------------------|
----------4-------9-----------------7--|
--2-2-2-2---2-2-2-----5-7-5---5-7-5----|
----------------------------7----------|
---------------------------------------|

-----12-----------------------------------|
--15----15-14-12----12--------------------|
-----------------15----15-14-12-----------|
--------------------------------15-14-12--|
------------------------------------------|
------------------------------------------|

--17-15-14--------------------------------|
-----------17-15-14-----------------------|
--------------------17-15-14--------------|
-----------------------------17-16-14-----|
--------------------------------------17--|
------------------------------------------|

Breakdown bit
-------------------------|
-------------------------|
--9-7-9---12-7-9---5--7--|
--9-7-9---12-7-9---5--7--|
--7-5-7---10-5-7---3--5--|
-------------------------|

-----------------------------|
--17-12-15-------------------|
------------14-12-14--11-----|
-------------------------12--|
-----------------------------|
-----------------------------|

-----------------------------|
--17-15------------12-13-12--|
---------14-12-14------------|
-----------------------------|
-----------------------------|
-----------------------------|
            
Submit corrections

comments powered by Disqus
↑ Back to top | Iron Maiden Tabs for 2 Minutes To Midnight (Solo Ver 2). Lyrics for acoustic guitar and electric guitar. Tablatures and chords are parodies/interpretations of the original songs. You may use it for private study, scholarship, research or language learning purposes only