» » »

Iron Maiden, 2 Minutes To Midnight Tabs (ver.4)

Artists:  A B C D E F G H I J K L M N O P Q R S T U V W X Y Z # 

2 Minutes To Midnight Tabs (ver.4)

Iron Maiden Tabs
Rating:
0/5 (0 votes)
2 Minutes To Midnight lessons Tabs too difficult? Try these video lessons and learn fast
                (Solo)
iron maiden
2 minutes to midnight live @ rock in rio

chris garr


dave murray
-------------------------------------------------------------|
-----------------------------------------------------10------|
-7brwhammy-bar-diver7br7-5-4h5p4-2h4p2p0-whammy-dive---------|
-------------------------------------------------------------|
-------------------------------------------------------------|
-------------------------------------------------------------|

-------------------------------------------------------------|
-12-13-15-13-12h13p12-15-13-12h13p12-10h12p10-8h10p8---------|
-------------------------------------------------------------|
-------------------------------------------------------------|
-------------------------------------------------------------|
-------------------------------------------------------------|

--------------------------------------12h15p12----12h15p12----|
--6h8p6--5h6p5h6p5-----------------------------15----------15-|
--------------------7p5-7br7br7p5h7---------------------------|
--------------------------------------------------------------|
--------------------------------------------------------------|
--------------------------------------------------------------|
          wb wb wb wb wb  wb wb wb
-15br15b--20-20-20-19-17-------------------------------------|
--------------------------20-18-17------17-whammy-bar-dive---|
-----------------------------------19---17-whammy-bar-dive---|
-------------------------------------------------------------|
-------------------------------------------------------------|
-------------------------------------------------------------|
i dont know the symbol for whammy bar vibrato so i'll just put wb

adrian smith
---------12h15p12h15p12------------12-----------------------|
-15br15b----------------15p12-15b-----12-15-12----12--------|
-----------------------------------------------15----15-14--|
------------------------------------------------------------|
------------------------------------------------------------|
------------------------------------------------------------|

------------------------------------------------------------|
-------15b--------------------------------------------------|
-12---------14h16p14h16p14-12h14p12h14p12-11h12p11h12p11----|
----14------------------------------------------------------|
------------------------------------------------------------|
------------------------------------------------------------|

------------------------------------------------------------|
------------------------------------------------------------|
--8h9p8h9p8--9-8--------------------------------------------|
-----------------10-9-7-------------------------------------|
-------------------------10-9-7\6---------------------------|
------------------------------------------------------------|

------------------------------------------------------------|
------------------------------------------------------------|
--------------9-------------7------7------------------------|
-------9--------------5-------5-----------------------------|
-7-7-7---7-7------7-7---7-------7---------------------------|
------------------------------------------------------------|
                                                     a.h
--12-----12-------------------------------------15br(15)----|
-----15b----15-12-----12h15p12-----12h15p12--12-------------|
------------------14b----------14b--------------------------|
------------------------------------------------------------|
------------------------------------------------------------|
------------------------------------------------------------|
   a.h  a.h  a.h  a.h  a.h   a.h  a.h   a.h
--(14)-(12)-------------------------------------------------|
------------(15)-(13)-(12)---(15)-(13)-(12)--------15b------|
--------------------------------------------14p12-----------|
------------------------------------------------------------|
------------------------------------------------------------|
------------------------------------------------------------|

--12--------------------------------------------------------|
-----12---------------12\-----------------------------------|
--------14p12---------12\-----------------------------------|
--------------14-14---12\-----------------------------------|
------------------------------------------------------------|
------------------------------------------------------------|
a wah pedal is used in both of these solo.
            

comments powered by Disqus
↑ Back to top | Iron Maiden Tabs for 2 Minutes To Midnight. Lyrics for acoustic guitar and electric guitar. Tablatures and chords are parodies/interpretations of the original songs. You may use it for private study, scholarship, research or language learning purposes only