» » »

Naked As We Came Tabs (ver.1)

Artists:  A B C D E F G H I J K L M N O P Q R S T U V W X Y Z # 

Naked As We Came Tabs (ver.1)

Iron And Wine
Rating:
0/5 (0 votes)

Hard to play? Try these video lessons and learn fast.
                
Iron & Wine - "Naked As We Came" from "Our Endless Numbered Days" (2004) 

If anyone has anything to add from this album or the last album of his
Don't be shy!! Email me if you like this, or its wrong or if you have
anything else to say:


Cheers, 
David, Calgary AB. 
 
INTRO X4 & Verse X4
E|-------0--------0-------0-------0|--------------------------------|
B|---------------------------------|-------2-------2-----2---------2|
G|---2-1------2-1-----2-1-----2-1--|---2-------2-------2-------2----|
D|-2-------------------------------|-----2-------2---------2-----2--|
A|------------------2--------------|-----------------4-------2------|
E|---------0----------------0------|-2-------4----------------------|

CHORUS X4 

E|---------------2-----------------|--------------------------------|
B|-------2---------------2-------2-|-------2-------2-----2---------2|
G|---2-------2-------2-------2-----|---2-------2-------2-------2----|
D|-----4-------4-------4-------4---|-----2-------2---------2-----2--|
A|-2-------2-------2-------2-------|-----------------4-------2------|
E|---------------------------------|-2-------4----------------------|
            
Hard to play? Try these video lessons and learn fast. | Correct




comments powered by Disqus
↑ Back to top | Tablatures and chords are parodies/interpretations of the original songs. You may use it for private study, scholarship, research or language learning purposes only