» » »

Beauiful Tragedy Tabs (ver.1)

Artists:  A B C D E F G H I J K L M N O P Q R S T U V W X Y Z # 

Beauiful Tragedy Tabs (ver.1)

In This Moment
Rating:
2/5 (1 vote)

Hard to play? Try these video lessons and learn fast.
                -------------------------------------------------------------------------------
                        beautiful tragedy - in this moment
-------------------------------------------------------------------------------

Tuning:standered
Into (first 3)
e|-------------------------------------------------------------------------|
B|--8p-7---8p-7---8p-7---8p-7---8p-7---------------------------------------|
G|-------7------7------7------7------7-------------------------------------|
D|-------------------------------------------------------------------------|
A|-------------------------------------------------------------------------|
E|-------------------------------------------------------------------------|
x2
e|-------------------------------------------------------------------------|
B|--10p-7---10p-7---10p-7---10p-7---10p------------------------------------|
G|--------7-------7-------7------7------7----------------------------------|
D|-------------------------------------------------------------------------|
A|-------------------------------------------------------------------------|
E|-------------------------------------------------------------------------|

e|-------------------------------------------------------------------------|
B|--10p-8---10p-8---10p-8---10p-8---10p-8----------------------------------|
G|--------7-------7-------7-------7-------7--------------------------------|
D|-------------------------------------------------------------------------|
A|-------------------------------------------------------------------------|
E|-------------------------------------------------------------------------|
Chorus
e|-3-3-3-3-3-3---------------2-2-2-2-2-2-2--3-3-3-3-3-3--------------------|
B|-3-3-3-5-5-5---------------3-3-3-3-3-3-3--3-3-3-3-3-3--------------------|
G|-5-5-5-5-5-5---------------2-2-2-2-2-2-2--2-2-2-2-2-2--------------------|
D|-5-5-3-3-3-3--2-2-2-2-2-2--0-0-0-0-0-0-0--0-0-0-0-0-0--------------------|
A|-3-3-3-3-3-3--2-2-2-2-2-2--0-0-0-0-0-0-0--0-0-0-0-0-0--------------------|
E|--------------0-0-0-0-0-0------------------------------------------------|
Verse
e|------------3-2----------------------------------------------------------|
B|------------3-3----------------------------------------------------------|
G|------------2-2-------4-2h-4p-2p-0-------4-2h-4p-2p-0--------------------|
D|--2-2--2-2--0-0--2-2----------------2-2----------------------------------|
A|--2-2--2-2--x-0--2-2----------------2-2----------------------------------|
E|--o-o--0-0--3----0-0----------------0-0----------------------------------|

e|-3-2---------------------------------------------------------------------|
B|-3-3---------------------------------------------------------------------|
G|-2-2---------------------------------------------------------------------|
D|-0-0--2-2--------2-2-----------------------------------------------------|
A|-x-0--2-2---4-2--2-2---4-2-----------------------------------------------|
E|-3----0-0--0-----0-0--0--------------------------------------------------|

e|-3-2----------------------------------------3-2--------------------------|
B|-3-3----------------------------------------3-3--------------------------|
G|-2-2-------4-2h-4p-2p-0-------4-2h-4p-2p-0--2-2--------------------------|
D|-0-0--2-2----------------2-2----------------2-0--------------------------|
A|-x-0--2-2----------------2-2----------------x-0--------------------------|
E|-3----0-0----------------0-0----------------3----------------------------|
Solo
e|-------------------------------------------------------------------------|
B|-------------------------------------------------------------------------|
G|-------------------------------------------------------------------------|
D|-------------------------------------------------------------------------|
A|--5-2-3-2-2-3------------------------------------------------------------|
E|-x-----------------------------------------------------------------------|
x8

so ya that should be it
if it sux like me last 1 tell me
p=pull off
h=hammer on
            
Hard to play? Try these video lessons and learn fast. | Correct




comments powered by Disqus
↑ Back to top | Tablatures and chords are parodies/interpretations of the original songs. You may use it for private study, scholarship, research or language learning purposes only