>
 >
You Wont Hear From Me Again 1

You Wont Hear From Me Again 1 Guitar Tabs

Inme - You Wont Hear From Me Again 1 chords, tabs, tablatures, lyrics

Guitar lessons | Add/correct | Request | Top 50 tabs Artists:  A B C D E F G H I J K L M N O P Q R S T U V W X Y Z 0-9

You Wont Hear From Me Again 1 Guitar Tabs – Inme

CD, Sheet music, Poster

Do you like You Wont Hear From Me Again 1? Share with your friends now
TabsTabs v2
Band: InME

Intro

e|-----------------------------|--------------------------------|
b|-----------------------------|--------------------------------|
g|-/9--/12--11--9--11-7--/9-7--|--/9--/12--11--9--12-11-/12-11--|
d|--x---x---x---x--x--x---x-x--|---x---x---x---x--x--x---x--x---|
a|-/7--/10--9---7--9--5--/7-5--|--/7--/10--9---7--10-9--/10-9---|
D|-----------------------------|--------------------------------|


e|-----------------------------|--------------------------------|
b|-----------------------------|--------------------------------|
g|-/9--/12--11--9--11-7--/9-7--|--/9--/12--11--9--12-11-/12-11--|
d|--x---x---x---x--x--x---x-x--|---x---x---x---x--x--x---x--x---|
a|-/7--/10--9---7--9--5--/7-5--|--/7--/10--9---7--10-9--/10-9---|
D|-----------------------------|--------------------------------|


Verse

e|--/5-5-3-5-------|--/5-5-3-5------------|
b|-----------5/7---|------------5/7-------|
g|-----------------|----------------------|
d|-----------------|----------------------|
a|-----------------|----------------------|
D|-----------------|----------------------|


e|----------------------------------------|
b|-------------------------------10-9-----|
g|-5---9---7---9--------------------------|
d|-x---x---x---x---ALL SRTUMMED-----------|
a|-3---7---5---7--------------------------|
D|----------------------------------------|


Chorus

e|----------------|-----------------------------------------|
b|-9--10--13--12--|--9--10--14--16--17----------------------|
g|-x--x---x---x---|--x--x---x---x---x-----------------------|
d|-7--8---11--10--|--7--8---12--14--15---ALL STRUMMED-------|
a|----------------|-----------------------------------------|
D|----------------|-----------------------------------------|


Preverse

e|-------------------5*-5*-7*-7*-5*-5*--------------------------------|
b|-5*-5*-7*-7*-5*-5*-------------------5*-5*-7*-7*-5*-5*-7*-7*-5*-5*--|
g|--------------------------------------------------------------------|
d|--------------------------------------------------------------------|
a|--------------------------------------------------------------------|
D|--------------------------------------------------------------------|


Verse

e|--/5-5-3-5-------|--/5-5-3-5------------|
b|-----------5/7---|------------5/7-------|
g|-----------------|----------------------|
d|-----------------|----------------------|
a|-----------------|----------------------|
D|-----------------|----------------------|


e|----------------------------------------|
b|-------------------------------10-9-----|
g|-5---9---7---9--------------------------|
d|-x---x---x---x---ALL SRTUMMED-----------|
a|-3---7---5---7--------------------------|
D|----------------------------------------|


Chorus

e|----------------|-----------------------------------------|
b|-9--10--13--12--|--9--10--14--16--17----------------------|
g|-x--x---x---x---|--x--x---x---x---x-----------------------|
d|-7--8---11--10--|--7--8---12--14--15---ALL STRUMMED-------|
a|----------------|-----------------------------------------|
D|----------------|-----------------------------------------|


Breakdown

e|----------------------------------------------------------------|
b|----------------------------------------------------------------|
g|----------------------------------------------------------------|
d|----------------------------------------------------------------|
a|----------------------------------------------------------------|
D|-8h11-0-0-0-8h11-0-0-9h12-0-0-8h11-0-0-8h11-0-0-9h12-0-0-8/12b--|


e|-------------------------------------------------------|
b|-------------------------------------------------------|
g|------------------10h12p-8h10p-------------------------|
d|-------------------------------8h10p--7-5-3------------|
a|--------------------------------------5-3-1------------|
D|-0-0-0-8h11-0-0-0--------------------------------------|

e|----------------------------------------------------------------|
b|----------------------------------------------------------------|
g|----------------------------------------------------------------|
d|----------------------------------------------------------------|
a|----------------------------------------------------------------|
D|-8h11-0-0-0-8h11-0-0-9h12-0-0-8h11-0-0-8h11-0-0-9h12-0-0-8/12b--|


e|-------------------------------------------------------|
b|-------------------------------------------------------|
g|------------------10h12p-8h10p-------------------------|
d|-------------------------------8h10p--7-5-3------------|
a|--------------------------------------5-3-1------------|
D|-0-0-0-8h11-0-0-0--------------------------------------|


e|-------------------------------------------------------|
b|-----6-----7-----9--9------9-----11--------------------|
g|-----7-----9-----11-11-----11----12--------------------|
d|-------------------------------------------------------|
a|-0-0---0-0---0-0-------0-0----0-0----------------------|
D|-0-0---0-0---0-0-------0-0----0-0----------------------|


Solo

e|----------------------------------------------------------------|
b|-13b-13b-13b-12-10-12-10-8-3-3/17-15-17b-15---------------------|
g|----------------------------------------------------------------|
d|----------------------------------------------------------------|
a|----------------------------------------------------------------|
D|----------------------------------------------------------------|


e|-------17----15----14--12p15-10p13--8p10------------------------|
b|-13-13----13----13----------------------------------------------|
g|----------------------------------------------------------------|
d|----------------------------------------------------------------|
a|----------------------------------------------------------------|
D|----------------------------------------------------------------|

                                        T
e|----------------------------------------------------------------|
b|-//10-8 10/12-10-12-13b-12---//10--------------12-14-12-10-8----|
g|-----------------------------------10-13p12p10------------------|
d|----------------------------------------------------------------|
a|----------------------------------------------------------------|
D|----------------------------------------------------------------|

        T
e|-------------------------------15-17b-18-18-20-18-15p17-15/18b--|
b|---------------12-14-12-10-8------------------------------------|
g|--10-13p12p10---------------------------------------------------|
d|----------------------------------------------------------------|
a|----------------------------------------------------------------|
D|----------------------------------------------------------------|

    T     T     T     T     T     T     T    T     T     T
e|-17p12-17p12-17p12-17p12-17p12-17p12-17p12-17p12-17p12-17p12----|
b|----------------------------------------------------------------|
g|----------------------------------------------------------------|
d|----------------------------------------------------------------|
a|----------------------------------------------------------------|
D|----------------------------------------------------------------|

                        T     T     T     T     T     T     T
e|-17b-20b-22b-22b-20b-18p14-18p14-18p14-18p14-18p14-18p14-18p14--|
b|----------------------------------------------------------------|
g|----------------------------------------------------------------|
d|----------------------------------------------------------------|
a|----------------------------------------------------------------|
D|----------------------------------------------------------------|

    T     T     T     T     T     T     T
e|-18p14-18p14-18p14-18p14-18p14-18p14-18p14----------------------|
b|----------------------------------------------------------------|
g|----------------------------------------------------------------|
d|----------------------------------------------------------------|
a|----------------------------------------------------------------|
D|----------------------------------------------------------------|


Chorus


e|----------------|-----------------------------------------|
b|-9--10--13--12--|--9--10--14--16--17----------------------|
g|-x--x---x---x---|--x--x---x---x---x-----------------------|
d|-7--8---11--10--|--7--8---12--14--15---ALL STRUMMED-------|
a|----------------|-----------------------------------------|
D|----------------|-----------------------------------------|

Outro

e|----------------------------------------------------------------|
b|----------------------------------------------------------------|
g|----------------------------------------------------------------|
d|----------------------------------------------------------------|
a|----------------------------------------------------------------|
D|-8h11-0-0-0-8h11-0-0-9h12-0-0-8h11-0-0-8h11-0-0-9h12-0-0-8/12b--|


e|-------------------------------------------------------|
b|-------------------------------------------------------|
g|------------------10h12p-8h10p-------------------------|
d|-------------------------------8h10p--7-5-3------------|
a|--------------------------------------5-3-1------------|
D|-0-0-0-8h11-0-0-0--------------------------------------|

e|----------------------------------------------------------------|
b|----------------------------------------------------------------|
g|----------------------------------------------------------------|
d|----------------------------------------------------------------|
a|----------------------------------------------------------------|
D|-8h11-0-0-0-8h11-0-0-9h12-0-0-8h11-0-0-8h11-0-0-9h12-0-0-8/12b--|


e|-------------------------------------------------------|
b|-------------------------------------------------------|
g|------------------10h12p-8h10p-------------------------|
d|-------------------------------8h10p--7-5-3-5-3--------|
a|--------------------------------------5-3-1-3-1--------|
D|-0-0-0-8h11-0-0-0--------------------------------------|


NOTE- On the solo, where there is one tap...
Keep you left hand on 10 and 12th fret (so you can pull off) and then with youre left 
tap 13, then pull off 12!





Comments


Popular Inme tabs & chords
Chamber Bass Tabs
All Terrain Vehicle Chords
Ruins Chords
Ruins Drum Tabs
Firefly Tabs
In Loving Memory 1 Tabs
Lava Twilight Tabs
Trenches 1 Tabs
Trenches Intro 1 Tabs
Wounds 1 Tabs


Song lyrics



↑ Back to top | Tablatures and chords are parodies/interpretations of the original songs. You may use it for private study, scholarship, research or language learning purposes only
© 2014 AZChords.com Contact us | Privacy policy | DMCA | Add/correct tabs | Request tabs | Top 50 tabs