» » »

Inme, Mosaic Bass tabs (ver.1)

Artists:  A B C D E F G H I J K L M N O P Q R S T U V W X Y Z # 

Mosaic Bass tabs (ver.1)

Inme Tabs
Rating:
0/5 (0 votes)
Mosaic  lessons Tabs too difficult? Try these video lessons and learn fast
                (2)
i'm 99% sure this is correct.

tuning - d,a,d,g

Intro
---------------|
---------------|
00-3-0-1-00-1-3| x4
---------------|

-----------------------------------------|
-----------------------------------------|
0-0-0----0-3-0-1-00-1-3-00-3-0-1-00-1-3| x2
------3-3--------------------------------------|

verse
------------------------------------------------------------|
-----7---6---5-------7---6---5------7---6---5------7---8---9|
------------------------------------------------------------|  x2
55-5---4---3----55-5---4---3---55-5---4---3---55-5---6---7--|

chorus
-----------------------------------------|
-----------------------------------------|
0-0-----00-3-0-1-00-1-3-00-3-0-1-00-1-3| x4
----3-3-------------------------------------|

verse

chorus

bridge
------------------------------------|
------------------------------------|
------------------------------------| x4 (or 8 i cant rememba at th moment)
--6-7-----6-7-----6-7-----6-7--7-7-7| 

---------------|
---------------|
00-3-0-1-00-1-3| x5
---------------|

chorus till end
            

comments powered by Disqus
↑ Back to top | Inme Bass for Mosaic. Lyrics for acoustic guitar and electric guitar. Tablatures and chords are parodies/interpretations of the original songs. You may use it for private study, scholarship, research or language learning purposes only