» » »

Injected, Misfortune Tabs (ver.2)

Artists:  A B C D E F G H I J K L M N O P Q R S T U V W X Y Z # 

Misfortune Tabs (ver.2)

Injected Tabs
 Rating:
4/5 (4 votes)
Misfortune lessons Tabs too difficult? Try these video lessons and learn fast
                Ok this song is the "full" version and the 100% right one.
Band: "Injected"
Tuning: Drop-D(D,A,D,G,B,E)

Intro:

E------------------|
B------------------|  x1 (Distortion)
G------------------|
D------------------|
A------3---5-3-1---|
D--3-3---3-------1-|

Verse:

E------------------------------------------|
B------------------------------------------|  x2 (Acoustic Tremelo)
G------------------------------------------|
D------------------------------------------|
A-----0---0---3---0----------0---0---7---3-|
D-1----------------------1-----------------|

Pre Chorus:

E---------------------------------------------------------------------------|
B---------------------------------------------------------------------------|  x2 (Distortion)
G--------------------------------------- (Palm mute untill the second "000--|
D-111-333-5555555555-000-333-1111111111-  -333-1111111111-------------------| then down strum
A-111-333-5555555555-000-333-1111111111-------------------------------------|  regularly.)
D-111-333-5555555555-000-333-1111111111-------------------------------------|

Chorus:

E---------------------------------|
B---------------------------------|  x4 (Distortion)
G---------------------------------|
D---------------55555555-33333333-|
A---1-3----3-5--55555555-33333333-|
D-5-----1-5-----55555555-33333333-|

Fill (I think):

E-----
B-----  x1 (Distortion)
G-----
D-1/5-
A-1/5-
D-1/5-

Repeat Verse:

At the beginning of the verse its replaced with some effect... I have no idea what it is 
Then it plays the verse.

E------------------------------------------|
B------------------------------------------|  x2 (Acoustic Tremelo)
G------------------------------------------|
D------------------------------------------|
A-----0---0---3---0----------0---0---7---3-|
D-1----------------------1-----------------|

Repeat Pre-Chorus:

E---------------------------------------------------------------------------|
B---------------------------------------------------------------------------|  x4 (Distortion)
G--------------------------------------- (Palm mute untill the fourth "000--|
D-111-333-5555555555-000-333-1111111111-  -333-1111111111-------------------| then down strum
A-111-333-5555555555-000-333-1111111111-------------------------------------|  regularly.)
D-111-333-5555555555-000-333-1111111111-------------------------------------|


Repeat Chorus:

E---------------------------------|
B---------------------------------|  x4 (Distortion)
G---------------------------------|
D---------------55555555-33333333-|
A---1-3----3-5--55555555-33333333-|
D-5-----1-5-----55555555-33333333-|

Bridge:

E--------------------------|
B--------------------------|  x2 (Distortion)
G--------------------------|
D-33-33-33-331-------------|
A-33-33-33-331-5-3-1-0-1---|
D-33-33-33-331-----------3-|

Continued:

E--------------------------------|
B--------------------------------|  x1 (Distortion)
G--------------------------------|
D-33-x-33-x-33-x-331-------------|
A-33-x-33-x-33-x-331-5-3-1-0-1---|
D-33-x-33-x-33-x-331-----------3-|

Continued:

E------------------|
B------------------|  x1 (Distortion)
G------------------|
D------------------|
A------3---5-3-1---|
D--3-3---3-------1-|

Repeat Chorus:

E---------------------------------|
B---------------------------------|  x4 (Distortion)
G---------------------------------|
D---------------55555555-33333333-|
A---1-3----3-5--55555555-33333333-|
D-5-----1-5-----55555555-33333333-|

Outro:

E-------------------------------|
B-------------------------------|  x4 (Distortion)
G-------------------------------|
D-1111111111111111-555555555555-|
A-1111111111111111-555555555555-|
D-1111111111111111-555555555555-|

Continued:


E---------------------------------------|
B---------------------------------------|  x3 (Distortion)
G---------------------------------------|
D-1111111111111111-555555555555---------|
A-1111111111111111-555555555555-0-1-0---|
D-1111111111111111-555555555555-------3-|

Continued:

E------------------|
B------------------|  x1 (Distortion)
G------------------|
D------------------|
A------3---5-3-1---|
D--3-3---3-------1-|
            
Submit corrections

comments powered by Disqus
↑ Back to top | Injected Tabs for Misfortune. Lyrics for acoustic guitar and electric guitar. Tablatures and chords are parodies/interpretations of the original songs. You may use it for private study, scholarship, research or language learning purposes only