» » »

Injected, Faithless Tabs (ver.3)

Artists:  A B C D E F G H I J K L M N O P Q R S T U V W X Y Z # 

Faithless Tabs (ver.3)

Injected Tabs
Rating:
2/5 (3 votes)
Faithless lessons Tabs too difficult? Try these video lessons and learn fast
                -------------------------------------------------------------------------------
                        Faithless - Injected
-------------------------------------------------------------------------------

Tuning: Drop D

Notes: I know this is an old song but I just found out about Injected a few days ago, 
I loved this song so I decided to tab it, since there aint really a good one out there.

Intro

Guitar 1
e|---------------------------------------------------------------------------|
B|---------------------------------------------------------------------------|
G|---------------------------------------------------------------------------|
D|-22-22-44-44-44-4----------------------------------------------------------|
A|-22-22-44-44-44-4----------------------------------------------------------|
E|-22-22-44-44-44-4----------------------------------------------------------|

Guitar 2
e|---------------------------------------------------------------------------|
B|-444444b~~-9---7-------9-9---7/9\4~-9---7----------------------------------|
G|-------------8---6-8-------8----------8---6-8---888888b~-------------------|
D|---------------------9------------------------9----------------------------|
A|---------------------------------------------------------------------------|
E|---------------------------------------------------------------------------|

Verse for Guitar one is same as intro but palm muted.

Guitar 2
e|---------------------------------------------------------------------------|
B|--7/9\4~—4\2~--------------------------------------------------------------|
G|---------------------------------------------------------------------------|
D|---------------------------------------------------------------------------|
A|---------------------------------------------------------------------------|
E|---------------------------------------------------------------------------|

Pre Chorus

Guitar 1

e|---------------------------------------------------------------------------|
B|---------------------------------------------------------------------------|
G|---------------------------------------------------------------------------|
D|-22-22-22------------------------------------------------------------------|
A|-22-22-22------------------------------------------------------------------|
E|-22-22-22------------------------------------------------------------------|


Chorus (Not really sure about this)
Rhythm not shown.

Guitar 1
e|---------------------------------------------------------------------------|
B|---------------------------------------------------------------------------|
G|---------------------------------------------------------------------------|
D|-2--4-----22242------------------------------------------------------------|
A|-2--4-----22242-[sneak in some of these]-----------------------------------|
E|-2--4-----22242------------------------------------------------------------|

Guitar 2
e|-6~~~~~-5~~~~~-------------------------------------------------------------|
B|---------------8~~~~~------------------------------------------------------|
G|----------------------6~~~~~~----------------------------------------------|
D|---------------------------------------------------------------------------|
A|---------------------------------------------------------------------------|
E|---------------------------------------------------------------------------|


Post Chorus

Guitar 1
e|---------------------------------------------------------------------------|
B|---------------------------------------------------------------------------|
G|---------------------------------------------------------------------------|
D|-22-22--44-44--------------------------------------------------------------|
A|-22-22--44-44--------------------------------------------------------------|
E|-22-22--44-44--------------------------------------------------------------|

Guitar 2
e|---------------------------------------------------------------------------|
B|-/9\7----/9b~9r\7~---------------------------------------------------------|
G|------8~-------------------------------------------------------------------|
D|---------------------------------------------------------------------------|
A|---------------------------------------------------------------------------|
E|---------------------------------------------------------------------------|

 Second verse is pretty much the same as first, but Guitar 2 also plays the intro
But some notes are palm muted. Listen to song for rhythm.

Solo (Played with Guitar 1 playing chorus part)

E----------------------------------------------------------------------------|
B-----12----12----12----12---------------------------------------------------|
G-11----11----11----11-----10h12---------------------------------------------|
D---12----12----12----12----------12p10h12h13p12-----------------------------|
A----------------------------------------------------------------------------|
E----------------------------------------------------------------------------|

e|---------------------------------------------------------------------------|
B|---7-7-7-9-------7---------------7~----7-9b~~~-----------------------------|
G|----8-6----8-6-8---6-8-6~~~--6-8-----8-------------------------------------|
D|---------------------------------------------------------------------------|
A|---------------------------------------------------------------------------|
E|---------------------------------------------------------------------------|

e|---------------------------------------------------------------------------|
B|--9---7----------7/9-4~~--9---7--------------------------------------------|
G|----8---6-8---8~------------8---6-8---8b~~/--------------------------------|
D|------------9-----------------------9--------------------------------------|
A|---------------------------------------------------------------------------|
E|---------------------------------------------------------------------------|


| /  slide up
| \  slide down
| h  hammer-on
| p  pull-off
| ~  vibrato
| b  bend
| r  release
===============================================================================
            

comments powered by Disqus
↑ Back to top | Injected Tabs for Faithless. Lyrics for acoustic guitar and electric guitar. Tablatures and chords are parodies/interpretations of the original songs. You may use it for private study, scholarship, research or language learning purposes only