>
 >
Redemption

Redemption Guitar Tabs

Inhale Exhale - Redemption chords, tabs, tablatures, lyrics

Guitar lessons | Add/correct | Request | Top 50 tabs Artists:  A B C D E F G H I J K L M N O P Q R S T U V W X Y Z 0-9

Redemption Guitar Tabs – Inhale Exhale

CD, Sheet music, Poster

Do you like Redemption? Share with your friends now
Tabs
I couldn't Find the correct tabs to this song so i tried to figure it out myself this is 
first full length tab i hope it's not confusing



Meanings
~ hold note
h hammer on
p pull off
" tremolo pick
* palm mute

Drop c

Intro
D|--------------------------------------|
A|3~5~6~8h10~10~10~8h10~10~10~13~~------|(Repeat 3X)
F|--------------------------------------|
C|--------------------------------------|
G|--------------------------------------|
C|--------------------------------------|

Verse
D|-------------------------------------------------|
A|-------------------------------------------------|
F|-------------------------------------------------|
C|-------------------------------------------5~-7~-|
G|-------------------------------------------3~-5~-|
C|0-0-3p0-3p0-0-0-0-3p0-3p0-0-0-0-3p0-3p0-0~0--0---|
    *         *   *         *   *           *  *
D|--------------------------------------------------------|
A|--------------------------------------------------------|
F|--------------------------------------------------------|
C|--------------------------------------------------------|
G|------------------------------------------3h5--3p2--2---|p0(Repeat Verse 2X)
C|0-0-3p0-3p0-0-0-0-3p0-3p0-0-0-0-3p0-3p0-00---00---00----|
    *         *   *         *   *         **   **   **
Verse 2
D|-----------------------------------------------------------------------|
A|-----------------------------------------------------------------------|
F|-----------------------------------------------------------------------|(Repeat Verse 2 2X)
C|-----------------------------------------------------------------------|
G|3h5-5---3h5-5---3h5-5---7--8--7p0---3h5-5---3h5-5---3h5-5---7--8--7p0--|
C|---0-000---0-000---0-000-00-00---000---0-000---0-000---0-000-00-00-----|
     * ***   * ***   * *** ** **   ***   * ***   * ***   * *** ** **
Chorus
Part A
D|-----------------------|
A|-----------------------|
F|-----------------------|
C|3(Play chord 16x)5(16x)
G|1----------------3-----|
C|-----------------------|

Part B
D|--------------------------------------------------------------------------|
A|--------------------------------------------------------------------------|
F|--------5(3x)5(3x)5(3x)5(3x)--------5(3x)5(3x)5(3x)5(3x)(i think the 2nd--|
C|0~~~~~~~3----2----3----2----0~~~~~~~3----2----3----2----------------------|guitarist plays
G|0~~~~~~~--------------------0~~~~~~~--------------------------------------|these 2 chords in the
C|0~~~~~~~--------------------0~~~~~~~--------------------------------------|middle of the chorus)

Repeat Verse 1 and 2 the chorus and play Part B of the chorus 2x when you go through it

i guess this is the bridge
Part A
D|---00---00---00---00-|
A|---66---66---66---66-|
F|---------------------|
C|---------------------|
G|000--000--000--000---|
C|000--000--000--000---|
  ***  ***  ***  ***
Part B
D|---------------------|
A|---------------------|
F|---55---55---77---77-|
C|---33---33---55---55-|
G|000--000--000--000---|
C|000--000--000--000---|
  ***  ***  ***  ***

Repeat the bridge 3x on the 2nd time on part A pinch harmonic the first 0
                                                                        6
the third time on part B the last 0 play 6x
                                  0

play this during part B of the bridge during the 2nd time you go through it
D|----------------------------------|
A|----------------------------------|
F|10~9~5~12~10~5~10~9~5~12~10~5~7~~~
C|----------------------------------|
G|----------------------------------|
C|----------------------------------|

play this during part B of the bridge during the 3rd time you go through it
D|------------------------------------|
A|------------------------------------|
F|10~9~5~12~10~5~10~9~5~12~10~12~14~~~
C|------------------------------------|
G|------------------------------------|
C|------------------------------------|


during the part after that it sounds like he plays this softly

D|-------0~~~~~~~~~~~~~0~~~~~~~~~~~~~~0~~~~~~
A|6~~~~~~~~~~~~~6~~~~~~~~~~~~~~6~~~~~~~~~~~~~
F|-------------------------------------------|
C|-------------------------------------------|
G|-------------------------------------------|
C|-------------------------------------------|

the last Rifff
D|-----------------------------------------|
A|-----------------------------------------|
F|-----------------------------------------|
C|-----------------------------------------|
G|--3h5-5--7--8--7p0--3h5-5--3h5--3p2--2p0-|
C|00---0-00-00-00---00---0-00---00---00----|
  **   * ** ** **   **   * **   **   **
play this the 3rd and 4th time you go through the last riff
D|------------------------|
A|------------------------|
F|7"-9"-10"-12"-10"-9"-7--|

then on the fourth time during the last riff add this to it
D|----------------------------|
A|10"-11"-13"-15"-13"-11"-10--|
F|----------------------------|

the last chord
c|0----
G|0----
c|0----





Comments


Popular Inhale Exhale tabs & chords
Is The Fact That Im Trying To Do It For You Bass Tabs
A Call To The Faithful Intro 1 Tabs
Better Her Than Me Tabs
Dance All Night Tabs
It's Myself Vs. Being A Man 1 Tabs
Lost The Sick The Sacred 1 Tabs
Lost The Sick The Sacred Intro Tabs
Sons Of Tomorrow (To Noah James) Tabs
Sons Of Tomorrow (To Noah James) 2 Tabs
Tonight We Die Together Tabs


Song lyrics



↑ Back to top | Tablatures and chords are parodies/interpretations of the original songs. You may use it for private study, scholarship, research or language learning purposes only
© 2014 AZChords.com Contact us | Privacy policy | DMCA | Add/correct tabs | Request tabs | Top 50 tabs