>
 >
Fluvanna 1

Fluvanna 1 Guitar Tabs

Inhale Exhale - Fluvanna 1 chords, tabs, tablatures, lyrics

Guitar lessons | Add/correct | Request | Top 50 tabs Artists:  A B C D E F G H I J K L M N O P Q R S T U V W X Y Z 0-9

Fluvanna 1 Guitar Tabs – Inhale Exhale

CD, Sheet music, Poster

Do you like Fluvanna 1? Share with your friends now
TabsTabs v2


x = mute
p = pull off
h = hammer on



Intro/Verses
D|-----------------------------------------------------------------|
A|-----------------------------------------------------------------|
F|------------------------------------------5-5--------------------|
C|-------5h7p0-8-------5-7-8-------5h7p0-8--5-5-6-6----------------|
G|------------------------------------------3-3-6-6----------------|
C|-0-0-0---------0-0-0-------0-0-0--------------6-6----------------|x4

D|----------------------------------------------|
A|----------------------------------------------|
F|----------------------------------------------|
C|---------6--------------6---------------------|
G|---------6-x-x----------6---------------------|
C|-0-4p3p0-6-x-x--0-4p3p0-6--0-4-3-0-4-3-0------|x2

D|----------------------------------------------------------------|
A|----------------------------------------------------------------|
F|----------------------------------------------------------------|
C|---------6----------6----------6---------6----------------------|
G|---------6----------6----------6---------6----------------------|
C|-0-4p3p0-6--0-4p3p0-6--0-4p3p0-6-0-4p3p0-6--0-4-3-0-4-3-0-------|x2

*tremelo picking!*
D|-13(x16)-------------------------13(x16)-18(x16)-17(x16)-15(x16)-|
A|-----------------------------------------------------------------|
F|---------14(x16)-12(x16)-10(x16)---------------------------------|
C|-----------------------------------------------------------------|
G|-----------------------------------------------------------------|x2
"I was born to die.."
*on second time go back down to 13 and slightly bend*

D|------------------------------------------0-0-----0-0------------|
A|------------------------------------------6-6-----6-6------------|
F|-----------------------------------------------------------------|
C|-----------------------------------------------------------------|
G|-0--0000-0-0--0-0-00-0-0-0-0--0--0000-0-0-----0-0----------------|
C|-0--0000-0-0--0-0-00-0-0-0-0--0--0000-0-0-----0-0----------------|
*Figure out the strumming by yourself, its easy to pick up*

**Repeat from beginning(Breakdown is longer second time around)**

**Then repeat chorus, which is a little longer this time around too**

Ends with this ->

D|------------------------------------------------------------|
A|------------------------------------------------------------|
F|------------------------------------------------------------|
C|-0-00000--0-0-000-00-0--3-33333--3-3-333-33-3--0------------|
G|-0-00000--0-0-000-00-0--3-33333--3-3-333-33-3--0------------|
C|-0-00000--0-0-000 00-0--3-33333--3-3-333-33-3--0(let ring)--|
*Again, strumming is off, but its not hard to figure out*





Comments


Popular Inhale Exhale tabs & chords
A Call To The Faithful Intro Tabs
It's Myself Vs. Being A Man Tabs
It's Myself Vs. Being A Man 2 Tabs
Lost The Sick The Sacred 1 Tabs
Lost The Sick The Sacred Intro Tabs
Sons Of Tomorrow (To Noah James) Tabs
Sons Of Tomorrow (To Noah James) 1 Tabs
Sons Of Tomorrow (To Noah James) 2 Tabs
Tonight We Die Together Tabs
Your Walls... My Words Tabs


Song lyrics



↑ Back to top | Tablatures and chords are parodies/interpretations of the original songs. You may use it for private study, scholarship, research or language learning purposes only
© 2014 AZChords.com Contact us | Privacy policy | DMCA | Add/correct tabs | Request tabs | Top 50 tabs