» » »

Ingrid Michaelson, The Way I Am Tabs (ver.1)

Artists:  A B C D E F G H I J K L M N O P Q R S T U V W X Y Z # 

The Way I Am Tabs (ver.1)

Ingrid Michaelson Tabs
 Rating:
4/5 (4 votes)
The Way I Am lessons Tabs too difficult? Try these video lessons and learn fast
                #---------------------------------PLEAS ENOTE---------------------------------#
#------------------------------------------------------------------------------##

Please bear with me, this is my first tab. I really like this song and felt that the
tabs were slightly incorrect or incomplete. (ie. you dont use a capo on the 3rd fret). I
I know the album version has a bass, I play the bass intro on
guitar. I'm also submitting the powertab i used to create this. Feel free to leave any suggestions.


                                  THE WAY I AM
                        As recorded by Ingrid Michaelson
                      (From the 2007 Album GIRLS AND BOYS)


           F                  Bb/F                 Dm/A
      1 3 3 2 1 1          1 1 3 3 3 1          5 5 7 7 6 5

          C                   Asus4
    8 10 10 9 8 8           5 5 7 7 5 5

          Bb                  Csus4                Bsus4
      6 8 8 7 6 6         8 8 10 10 8 8         7 7 9 9 7 7

          C#                    D
    9 11 11 10 9 9      10 12 12 11 10 10


Standard Tuning (E A D G B E)

4/4

INTRO
|-----------|-----------|-----------|------------|
|-----------|-----------|-----------|------------|
|-----------|-----------|-----------|------------|
|-----------|-----------|-----------|------------|
|-----------|-1---1-----|-5---5-----|-3---3------|
|-1---1-----|-----------|-----------|---------0--|


|-----------|-----------|-----------|--------------|
|-----------|-----------|-----------|--------------|
|-----------|-----------|-----------|--------------|
|-----------|-----------|-----------|--------------|
|-----------|-1---1-----|-5---5-----|-3---3--------|
|-1---1-----|-----------|-----------|---------0----|


VERSE
|-----------|-----------|-----------|------------|
|-----------|-----------|-----------|------------|
|-----------|-----------|-----------|------------|
|-----------|-----------|-----------|------------|
|-----------|-1---1-----|-5---5-----|-3---3------|
|-1---1-----|-----------|-----------|---------0--|


|-----------|-----------|-----------|------------|
|-----------|-----------|-----------|------------|
|-----------|-----------|-----------|------------|
|-----------|-----------|-----------|------------|
|-----------|-1---1-----|-5---5-----|-3---3---0--|
|-1---1-----|-----------|-----------|------------|


CHORUS
|------------|------------|------------|------------|
|------------|------------|------------|------------|
|------------|------------|------------|------------|
|------------|---------2--|-3---3---2--|-0---0------|
|-1---1---5--|-3---3------|------------|---------3--|
|------------|------------|------------|------------|


|------------|----------|-----------|-----------|
|------------|----------|-----------|-----------|
|------------|----------|-----------|-----------|
|------------|----------|-----------|-----------|
|-1---1---3--|-4--------|-----------|-----------|
|------------|----------|-1---1-----|-1---1-----|


VERSE
|-1---1-----|-1---1-----|-5---5-----|--8----8-----|
|-1---1-----|-3---3-----|-6---6-----|--8----8-----|
|-2---2-----|-3---3-----|-7---7-----|--9----9-----|
|-3---3-----|-3---3-----|-7---7-----|-10---10-----|
|-3---3-----|-1---1-----|-5---5-----|-10---10-----|
|-1---1-----|-1---1-----|-5---5-----|--8----8-----|


|-1---1-----|-1---1-----|-5---5-----|--8----8-------|
|-1---1-----|-3---3-----|-6---6-----|--8----8-------|
|-2---2-----|-3---3-----|-7---7-----|--9----9-------|
|-3---3-----|-3---3-----|-7---7-----|-10---10-------|
|-3---3-----|-1---1-----|-5---5-----|-10---10-------|
|-1---1-----|-1---1-----|-5---5-----|--8----8-------|


CHORUS
|-6---6-----|--8----8-----|--8----8---7--|-5---5-----|-6---6-----|
|-6---6-----|--8----8-----|--8----8---7--|-5---5-----|-6---6-----|
|-7---7-----|--9----9-----|-10---10---9--|-7---7-----|-7---7-----|
|-8---8-----|-10---10-----|-10---10---9--|-7---7-----|-8---8-----|
|-8---8-----|-10---10-----|--8----8---7--|-5---5-----|-8---8-----|
|-6---6-----|--8----8-----|--8----8---7--|-5---5-----|-6---6-----|


|--9-------8--|-1---1-----|-1---1-----|-----------|-----------|
|--9-------8--|-1---1-----|-1---1-----|-----------|-----------|
|-10-------9--|-2---2-----|-2---2-----|-----------|-----------|
|-11------10--|-3---3-----|-3---3-----|-----------|-----------|
|-11------10--|-3---3-----|-3---3-----|-3---0-----|-3---0-----|
|--9-------8--|-1---1-----|-1---1-----|-----------|-----------|


VERSE
|-1---1-----|-1---1-----|-5---5-----|--8----8-----|
|-1---1-----|-3---3-----|-6---6-----|--8----8-----|
|-2---2-----|-3---3-----|-7---7-----|--9----9-----|
|-3---3-----|-3---3-----|-7---7-----|-10---10-----|
|-3---3-----|-1---1-----|-5---5-----|-10---10-----|
|-1---1-----|-1---1-----|-5---5-----|--8----8-----|


|-1---1-----|-1---1-----|-5---5-----|--8----8-------|
|-1---1-----|-3---3-----|-6---6-----|--8----8-------|
|-2---2-----|-3---3-----|-7---7-----|--9----9-------|
|-3---3-----|-3---3-----|-7---7-----|-10---10-------|
|-3---3-----|-1---1-----|-5---5-----|-10---10-------|
|-1---1-----|-1---1-----|-5---5-----|--8----8-------|


CHORUS/OUTRO
|-6---6-----|--8----8-----|--8----8---7--|-5---5-----|
|-6---6-----|--8----8-----|--8----8---7--|-5---5-----|
|-7---7-----|--9----9-----|-10---10---9--|-7---7-----|
|-8---8-----|-10---10-----|-10---10---9--|-7---7-----|
|-8---8-----|-10---10-----|--8----8---7--|-5---5-----|
|-6---6-----|--8----8-----|--8----8---7--|-5---5-----|


|-6---6-----|--9----9-----|-10--------|--8----8-----|
|-6---6-----|--9----9-----|-10--------|--8----8-----|
|-7---7-----|-10---10-----|-11--------|--9----9-----|
|-8---8-----|-11---11-----|-12--------|-10---10-----|
|-8---8-----|-11---11-----|-12--------|-10---10-----|
|-6---6-----|--9----9-----|-10--------|--8----8-----|


|-6---6-----|--9----9-----|-10--------|
|-6---6-----|--9----9-----|-10--------|
|-7---7-----|-10---10-----|-11--------|
|-8---8-----|-11---11-----|-12--------|
|-8---8-----|-11---11-----|-12--------|
|-6---6-----|--9----9-----|-10--------|


|--8----8-----|-6---6-----|--9-----8----|-1----*|
|--8----8-----|-6---6-----|--9-----8----|-1----*|
|--9----9-----|-7---7-----|-10-----9----|-2----*|
|-10---10-----|-8---8-----|-11----10----|-3----*|
|-10---10-----|-8---8-----|-11----10----|-3----*|
|--8----8-----|-6---6-----|--9-----8----|-1----*|

***************************************************************************************
***************************************************************************************
            
Submit corrections

comments powered by Disqus
↑ Back to top | Ingrid Michaelson Tabs for The Way I Am. Lyrics for acoustic guitar and electric guitar. Tablatures and chords are parodies/interpretations of the original songs. You may use it for private study, scholarship, research or language learning purposes only