» » »

Ingrid Michaelson, Ribbons Human Again Chords (ver.1)

Artists:  A B C D E F G H I J K L M N O P Q R S T U V W X Y Z # 

Ribbons Human Again Chords (ver.1)

Ingrid Michaelson Tabs
 Rating:
4/5 (4 votes)
Ribbons Human Again lessons Tabs too difficult? Try these video lessons and learn fast
1
                -------------------------------------------------------------------------------
                          Ribbons - Ingrid Michaelson
-------------------------------------------------------------------------------

Tuning: Standard (EADGBe)

The basic structure of the song is shown here. To get a more faithful repro-
duction, listen to the song and apply muting on the barre chords. Also,
listen closely for volume dynamics in the real song.

Suggestion: for some parts, palm-mute and strum. don't fingerpick.

Forms used:
F#  : 244322
Bbm : x13321 
B   : x24442
C#  : x46664
D#m : x68876

Intro:
e|-----------------|-----------------|-----------------|-----------------|
B|-----2-----------|-----2-----------|-----2-----------|-----------------|
G|-----3-------3---|-----3-------3---|-----3-------3---|-----3-------3---|
D|---4---------4---|---4---------4---|---4---------4---|-----4-------4---|
A|-----------4-----|-----------4-----|-----------4-----|---4-------4-----|
E|-2---------------|-2---------------|-2---------------|-2---------------|

Verse:
e|-----------------|-----------------|-----------------|-----------------|
B|-----2-----------|-----2-----------|-----2-------2---|-----2-------2---|
G|-----3-------3---|-----3-------3---|-----3-------3---|-----3-------3---|
D|---4---------4---|---4---------4---|---3---3---3-----|---3---3---3-----|
A|-------4---4-----|-------4---4-----|-1---------------|-1---------------|
E|-2---------------|-2---------------|-----------------|-----------------|

e|-----------------|-----------------|-----------------|-----------------|
B|-----4-------4---|-----4-------4---|-----2-----------|-----2-----------|
G|-----4-------4---|-----4-------4---|-----3-------3---|-----3-------3---|
D|---4---4---4-----|---4---4---4-----|---4---------4---|---4---------4---|
A|-2---------------|-2---------------|-------4---4-----|-------4---4-----|
E|-----------------|-----------------|-2---------------|-2---------------|

Pre-chorus:

e|-----------------|-----------------|-----------------|-----------------|
B|-----4-------4---|-----6-------6---|-----7-------7---|-----2-------2---|
G|-----4-------4---|-----6-------6---|-----8-------8---|-----3-------3---|
D|---4---4---4-----|---6---6---6-----|---8---8---8-----|---3---3---3-----|
A|-2---------------|-4---------------|-6---------------|-1---------------|
E|-----------------|-----------------|-----------------|-----------------|

e|-----------------|-----------------|-----------------|-----------------|
B|-----4-------4---|-----6-------6---|-----7-------7---|-----6-------6---|
G|-----4-------4---|-----6-------6---|-----8-------8---|-----6-------6---|
D|---4---4---4-----|---6---6---6-----|---8---8---8-----|---6---6---6-----|
A|-2---------------|-4---------------|-6---------------|-4---------------|
E|-----------------|-----------------|-----------------|-----------------|

Chorus:

  (Repeat 3 times) (Alternatively, you can strum B, C#, Bbm, D#m)
e|-----------------|-----------------|-----------------|-----------------|
B|-----4-------4---|-----6-------6---|-----2-------2---|-----7-------7---|
G|-----4-------4---|-----6-------6---|-----3-------3---|-----8-------8---|
D|---4---4---4-----|---6---6---6-----|---3---3---3-----|---8---8---8-----|
A|-2---------------|-4---------------|-1---------------|-6---------------|
E|-----------------|-----------------|-----------------|-----------------|

  (On 4th time) (The notes are from the same chord forms)
e|-----------------|-----------------|-1-1-------------|-2-2-----4-4-----|
B|-----4-------4---|-4-4-----6-6-----|-2-2-----7-7-----|-4-4-----6-6-----|
G|-----4-------4---|-4-4-----6-6-----|-3-3-----8-8-----|-4-4-----6-6-----|
D|---4---4---4-----|-----------------|---------8-8-----|-----------------|
A|-2---------------|-----------------|-----------------|-----------------|
E|-----------------|-----------------|-----------------|-----------------|
 
e|-2---------------| (Optionally, just play the main chord, whatever sounds right.)
B|-2---2----4-4-4--|
G|-3---3----3-3-3--|
D|-4-4-------------|
A|-4---------------|
E|-2---------------|

Bridge: (strum to your own interpretation)

B  C#  Bbm  D#m
B  C#  Bbm  D#m

B      D#m
B      D#m
B      D#m
B      D#m  C#

B

Outro:

e|-1-1-------------|-2-2-----4-4-----|-2---------------|
B|-2-2-----7-7-----|-4-4-----6-6-----|-2---2----4-4-4--|
G|-3-3-----8-8-----|-4-4-----6-6-----|-3---3----3-3-3--|
D|---------8-8-----|-----------------|-4-4-------------|
A|-----------------|-----------------|-4---------------|
E|-----------------|-----------------|-2---------------|


[Intro]

[Verse]
i'm sitting pretty and i don't know why
i found somebody, said he'd make me fly
wrapped me up in ribbons then he left me to die
wrapped me up in ribbons then he left me to die

[Verse]
told me he'd hold me 'til there was no more
told me that he'd love me from the top to the floor
wrapped me up in ribbons then he went for the door
wrapped me up in ribbons then he went for the door

[Pre-Chorus]
all the time he takes are the words that he breaks
all the time he takes are the words that he breaks

[Chorus]
i'm not flying
i'm not flying am i
i'm not flying so damn high in the sky
i'm not flying
i'm not flying am i
i'm not flying am i

[Verse]
you look so pretty in the dark of night
but i'm getting wise in the early light
i can see you falling like a homemade kite
i can see you falling like a homemade kite

[Verse]
you put your sunday best on for us all
painting up a promise that you know will fall
wrap me in your ribbons tie me to the wall
wrap me in your ribbons tie me to the wall

[Pre-Chorus]
all the time he takes are the words that he breaks
all the time he takes are the words that he breaks

[Chorus]
i'm not flying
i'm not flying am i
i'm not flying so damn high in the sky
i'm not flying
i'm not flying am i
i'm not flying am i

[Bridge]
you walk on everybody
you walk on everyone
you walk right up and you ask me to dance
you ask me to dance
you ask me to dance then you walk away

[Chorus]
i'm not flying
i'm not flying am i
i'm not flying so damn high in the sky
i'm not flying
i'm not flying am i
i'm not flying am i

************************************

| /   slide up
| \   slide down
| h   hammer-on
| p   pull-off
| ~   vibrato
| +   harmonic
| x   Mute note
| b   Bend
| pb  Pre-bend
| br  Bend release
| pbr Pre-bend release
| brb Bend release bend

************************************
            
Submit corrections

comments powered by Disqus
↑ Back to top | Ingrid Michaelson Chords for Ribbons Human Again. Lyrics for acoustic guitar and electric guitar. 1 Tablatures and chords are parodies/interpretations of the original songs. You may use it for private study, scholarship, research or language learning purposes only