>
 >
Worlds Within The Margin

Worlds Within The Margin Bass Tabs

In Flames - Worlds Within The Margin chords, tabs, tablatures, lyrics

Guitar lessons | Add/correct | Request | Top 50 tabs Artists:  A B C D E F G H I J K L M N O P Q R S T U V W X Y Z 0-9

Worlds Within The Margin Bass Tabs – In Flames

CD, Sheet music, Poster

Do you like Worlds Within The Margin? Share with your friends now
Bass TabsTabs
Tune Down

D#||-------------------|-----------------------|--------------------|
A#||-------------------|-----------------------|--------------------|
F ||-------------------|-----------------------|-----------------5--|
C ||--0----------------|----------0--0--0-0-0--|--0-----------------|


                                                                     
------------------------|-------------------|-----------------------|
--4-------2-------------|-------------------|-----------------------|
-------3-------0--5--7--|-------------------|-----------------------|
------------------------|--0----------------|----------0--0--0-0-0--|


                                                               
--------------------|---------------------|-------------------|
--------------------|---------------------|-------------------|
-----------------5--|------3------0----5--|-------------------|
--0-----------------|---------------------|--0----------------|


                                                                      
-----------------------|--------------------|------------------------|
-----------------------|--------------------|--4-------2-------------|
-----------------------|-----------------5--|-------3-------0--5--7--|
----------0--0--0-0-0--|--0-----------------|------------------------|


                                                                 
-------------------|-----------------------|--------------------|
-------------------|-----------------------|--------------------|
-------------------|-----------------------|-----------------5--|
--0----------------|----------0--0--0-0-0--|--0-----------------|


                                                                             
---------------------|---------------------------|--------------------------|
---------------------|---------------------------|--0--------2--------------|
------3------0----5--|-----7--5-----7--10-----9--|--------3--------2--5--3--|
---------------------|--0--------0---------0-----|-----0--------0-----------|


                                                     
---------------------------|------------------------|
---------------------------|--4-------2-------------|
-----7--5-----7--10-----5--|-------3-------0--5--7--|
--0--------0---------0-----|------------------------|


                                                       
---------------------------|--------------------------|
---------------------------|--0--------2--------------|
-----7--5-----7--10-----9--|--------3--------2--5--3--|
--0--------0---------0-----|-----0--------0-----------|


                                                                             
---------------------------|---------------------|--------------------------|
---------------------------|---------------------|--------------------------|
-----7--5-----7--10-----5--|------3------0----5--|--------------------------|
--0--------0---------0-----|---------------------|--0--0--0--0--3--3--3--3--|


                                                      
--------------------------|--------------------------|
--------------------------|--------------------------|
--3--3--3--3--0--0--0--0--|--------------------------|
--------------------------|--0--0--0--0--3--3--3--3--|


                                                      
--------------------------|--------------------------|
--------------------------|--------------------------|
--3--3--3--3--5--5--5--5--|--------------------------|
--------------------------|--0--0--0--0--3--3--3--3--|


                                                      
--------------------------|--------------------------|
--------------------------|--------------------------|
--3--3--3--3--0--0--0--0--|--------------------------|
--------------------------|--0--0--0--0--3--3--3--3--|


                                                      
--------------------------|--------------------------|
--------------------------|--------------------------|
--3--3--3--3--2--2--2--2--|--------------------------|
--------------------------|--0--0--0--0--0--0--0--0--|


                                                      
--------------------------|--------------------------|
--------------------------|--------------------------|
--------------------------|--------------------------|
--0--0--0--0--0--0--0--0--|--5--5--5--5--5--5--5--5--|


                                                      
--------------------------|--------------------------|
--------------------------|--------------------------|
--------------------------|--------------------------|
--3--3--3--3--3--3--3--3--|--0--0--0--0--0--0--0--0--|


                                                      
--------------------------|--------------------------|
--------------------------|--------------------------|
--------------------------|--------------------------|
--0--0--0--0--0--0--0--0--|--5--5--5--5--5--5--5--5--|


                                                      
--------------------------|--------------------------|
--------------------------|--------------------------|
--------------------------|--------------------------|
--3--3--3--3--3--3--3--3--|--0--0--0--0--0--0--0--0--|


                                                      
--------------------------|--------------------------|
--------------------------|--------------------------|
--------------------------|--------------------------|
--0--0--0--0--0--0--0--0--|--5--5--5--5--5--5--5--5--|


                                                      
--------------------------|--------------------------|
--------------------------|--------------------------|
--------------------------|--------------------------|
--7--7--7--7--7--7--7--7--|--0--0--0--0--0--0--0--0--|


                                                      
--------------------------|--------------------------|
--------------------------|--------------------------|
--------------------------|--------------------------|
--0--0--0--0--0--0--0--0--|--5--5--5--5--5--5--5--5--|


                                                       
--------------------------|---------------------------|
--------------------------|---------------------------|
--------------------------|-----7--5-----7--10-----9--|
--7--7--7--7--7--7--7--7--|--0--------0---------0-----|


                                                                                
--------------------------|---------------------------|------------------------|
--0--------2--------------|---------------------------|--4-------2-------------|
--------3--------2--5--3--|-----7--5-----7--10-----5--|-------3-------0--5--7--|
-----0--------0-----------|--0--------0---------0-----|------------------------|


                                                       
---------------------------|--------------------------|
---------------------------|--0--------2--------------|
-----7--5-----7--10-----9--|--------3--------2--5--3--|
--0--------0---------0-----|-----0--------0-----------|


                                                                                
---------------------------|------------------------|--------------------------|
---------------------------|--4-------2-------------|--------------------------|
-----7--5-----7--10-----5--|-------3-------0--5--7--|--------------------------|
--0--------0---------0-----|------------------------|--0--0--0--0--0--0--0--0--|


                                                      
--------------------------|--------------------------|
--------------------------|--------------------------|
--------------------------|--------------------------|
--0--0--0--0--0--0--0--0--|--5--5--5--5--5--5--5--5--|


                                                      
--------------------------|--------------------------|
--------------------------|--------------------------|
--------------------------|--------------------------|
--3--3--3--3--3--3--3--3--|--0--0--0--0--0--0--0--0--|


                                                      
--------------------------|--------------------------|
--------------------------|--------------------------|
--------------------------|--------------------------|
--0--0--0--0--0--0--0--0--|--5--5--5--5--5--5--5--5--|


                                                      
--------------------------|--------------------------|
--------------------------|--------------------------|
--------------------------|--------------------------|
--3--3--3--3--3--3--3--3--|--0--0--0--0--0--0--0--0--|


                                                      
--------------------------|--------------------------|
--------------------------|--------------------------|
--------------------------|--------------------------|
--0--0--0--0--0--0--0--0--|--5--5--5--5--5--5--5--5--|


                                                      
--------------------------|--------------------------|
--------------------------|--------------------------|
--------------------------|--------------------------|
--7--7--7--7--7--7--7--7--|--0--0--0--0--0--0--0--0--|


                                                      
--------------------------|--------------------------|
--------------------------|--------------------------|
--------------------------|--------------------------|
--0--0--0--0--0--0--0--0--|--5--5--5--5--5--5--5--5--|


                                                       
--------------------------|---------------------------|
--------------------------|---------------------------|
--------------------------|-----10--9--7-----3--3--5--|
--7--7--7--7--7--7--7--7--|--0------------0-----------|


                                                                               
--------------------------|---------------------------|-----------------------|
--------------------------|---------------------------|-----------------------|
-----0-----2-----3-----5--|-----10--9--7-----3--3--5--|----5----7----5--------|
--0-----0-----0-----0-----|--0------------0-----------|-----------------8--7--|


                                                       
---------------------------|--------------------------|
---------------------------|--------------------------|
-----10--9--7-----3--3--5--|-----0-----2-----3-----5--|
--0------------0-----------|--0-----0-----0-----0-----|


                                                                               
---------------------------|-----------------------|--------------------------|
---------------------------|-----------------------|--------------------------|
-----10--9--7-----3--3--5--|----5----7----5--------|--0--0--0--0--3--3--3--3--|
--0------------0-----------|-----------------8--7--|--------------------------|


                                                                       
--------------------------|-------------------|-----------------------|
--3--3--3-----------------|-------------------|-----------------------|
-----------5--5--5--5--7--|-------------------|-----------------------|
--------------------------|--0----------------|----------0--0--0-0-0--|


                                                                          
--------------------|------------------------|---------------------------|
--------------------|--4-------2-------------|---------------------------|
-----------------5--|-------3-------0--5--7--|-----7--5-----7--10-----9--|
--0-----------------|------------------------|--0--------0---------0-----|


                                                                                
--------------------------|---------------------------|------------------------|
--0--------2--------------|---------------------------|--4-------2-------------|
--------3--------2--5--3--|-----7--5-----7--10-----5--|-------3-------0--5--7--|
-----0--------0-----------|--0--------0---------0-----|------------------------|


                                                      
--------------------------|--------------------------|
--------------------------|--------------------------|
--------------------------|--------------------------|
--0--0--0--0--0--0--0--0--|--0--0--0--0--0--0--0--0--|


                                                      
--------------------------|--------------------------|
--------------------------|--------------------------|
--------------------------|--------------------------|
--5--5--5--5--5--5--5--5--|--7--7--7--7--7--7--7--7--|


                                                      
--------------------------|--------------------------|
--------------------------|--------------------------|
--------------------------|--------------------------|
--0--0--0--0--0--0--0--0--|--0--0--0--0--0--0--0--0--|


                                                      
--------------------------|--------------------------|
--------------------------|--------------------------|
--------------------------|--------------------------|
--5--5--5--5--5--5--5--5--|--7--7--7--7--7--7--7--7--|


                                                       
---------------------------|--------------------------|
---------------------------|--------------------------|
-----10--9--7-----3--3--5--|-----0-----2-----3-----5--|
--0------------0-----------|--0-----0-----0-----0-----|


                                                                                
---------------------------|-----------------------|---------------------------|
---------------------------|-----------------------|---------------------------|
-----10--9--7-----3--3--5--|----5----7----5--------|-----10--9--7-----3--3--5--|
--0------------0-----------|-----------------8--7--|--0------------0-----------|


                                                                               
--------------------------|---------------------------|-----------------------|
--------------------------|---------------------------|-----------------------|
-----0-----2-----3-----5--|-----10--9--7-----3--3--5--|----5----7----5--------|
--0-----0-----0-----0-----|--0------------0-----------|-----------------8--7--|


                                                                                
--------------------------|-------------------------|--------------------------|
--------------------------|-------------------------|--------------------------|
--5-5-5-5-5------5--5--7--|--7--7----2-----2-----5--|--3-3-3-3-3------5--5--7--|
--------------------------|-------------0-----0-----|--------------------------|


                                                                             
-----------------------|--------------------------|-------------------------|
-----------------------|--------------------------|-------------------------|
--7-------2----2--2----|--5-5-5-5-5------5--5--7--|--7--7----2-----2-----5--|
-------3---------------|--------------------------|-------------0-----0-----|


                                                                          
-------------------------|--------------------|--------------------------|
-------------------------|--------------------|--------------------------|
--3-3-3-3-3------5----7--|-------------2------|--5--5--5--5--5--7--7--7--|
-------------------------|--------3-----------|--------------------------|


                                                      
--------------------------|--------------------------|
--------------------------|--------------------------|
--9--9--9--9--9--9--9--9--|--5--5--5--5--5--7--7--7--|
--------------------------|--------------------------|


                                                      
--------------------------|--------------------------|
--------------------------|--------------------------|
--9--9--9--------4--4--4--|--5--5--5--5--5--7--7--7--|
-----------5--5-----------|--------------------------|


                                                      
--------------------------|--------------------------|
--------------------------|--------------------------|
--9--9--9--9--9--9--9--9--|--5--5--5--5--5--7--7--7--|
--------------------------|--------------------------|


                                                                  
--------------------------|-------------------|------------------|
--------------------------|-------------------|------------------|
--9--9--9--------4--4--4--|-------------------|------------------|
-----------5--5-----------|--0----------------|------------------|


                                                                         
-------------------|------------------------|---------------------------|
-------------------|--4-------2-------------|---------------------------|
----------------5--|-------3-------0--5--7--|-----10--9--7-----3--3--5--|
-------------------|------------------------|--0------------0-----------|


                                                                               
--------------------------|---------------------------|-----------------------|
--------------------------|---------------------------|-----------------------|
-----0-----2-----3-----5--|-----10--9--7-----3--3--5--|----5----7----5--------|
--0-----0-----0-----0-----|--0------------0-----------|-----------------8--7--|


                                                       
---------------------------|--------------------------|
---------------------------|--------------------------|
-----10--9--7-----3--3--5--|-----0-----2-----3-----5--|
--0------------0-----------|--0-----0-----0-----0-----|


                                                                                
---------------------------|-----------------------|---------------------------|
---------------------------|-----------------------|---------------------------|
-----10--9--7-----3--3--5--|----5----7----5--------|-----10--9--7-----3--3--5--|
--0------------0-----------|-----------------8--7--|--0------------0-----------|


                                                                               
--------------------------|---------------------------|-----------------------|
--------------------------|---------------------------|-----------------------|
-----0-----2-----3-----5--|-----10--9--7-----3--3--5--|----5----7----5--------|
--0-----0-----0-----0-----|--0------------0-----------|-----------------8--7--|


                                                       
---------------------------|--------------------------|
---------------------------|--------------------------|
-----10--9--7-----3--3--5--|-----0-----2-----3-----5--|
--0------------0-----------|--0-----0-----0-----0-----|


                                                                    
---------------------------|--------------------|------------------|
---------------------------|--------------------|------------------|
-----10--9--7-----3--3--5--|----5----7----------|------------------|
--0------------0-----------|--------------------|------------------|


                                                          
------------------|------------------|------------------||
------------------|------------------|------------------||
------------------|------------------|------------------||
------------------|------------------|------------------||





Comments


Popular In Flames tabs & chords
Clayman 2 Bass Tabs
Dialogue With The Stars Bass Tabs
Episode 666 5 Bass Tabs
Swim 2 Bass Tabs
Zombie Inc 2 Bass Tabs
Black And White 2 Tabs
Gyroscope Tabs
March To The Shore Tabs
Square Nothing 1 Tabs
The Quiet Place Intro 2 Tabs


Song lyrics



↑ Back to top | Tablatures and chords are parodies/interpretations of the original songs. You may use it for private study, scholarship, research or language learning purposes only
© 2014 AZChords.com Contact us | Privacy policy | DMCA | Add/correct tabs | Request tabs | Top 50 tabs