>
 >
Subterranean

Subterranean Guitar Tabs

In Flames - Subterranean chords, tabs, tablatures, lyrics

Guitar lessons | Add/correct | Request | Top 50 tabs Artists:  A B C D E F G H I J K L M N O P Q R S T U V W X Y Z 0-9

Subterranean Guitar Tabs – In Flames

CD, Sheet music, Poster

Do you like Subterranean? Share with your friends now
Drum TabsTabs
IN FLAMES - SUBTERRANEAN   
                         From the Album SUBTERRANEAN
                         Copyright 1995 Wrong Again Records
     
                         Version 1.3 - April 98

(too) Many many many many hours spent transcribing, perfecting, and getting
every little detail by: Jeremy Disten and Richard Broadhead 

     Contact Rich at email-address  : 

Check Out My Web Page, With More Transcriptions On It:
               

.  - palm mute                          ph    - pinched harmonic
/  - slide up to                        ah    - artificial harmonic
\  - slide down to                      hr    - harmonic
~  - vibrato                            p     - pull off
bf - full bend                          h     - hammer on
bh - bend half a step                   ()    - ghost note,sustained note                         
r  - release bend                       pbh,f - prebend(h-half step, f-full)
t  - tap                                th    - tap harmonic



  Guitar 1
|---------------------------------------------------------------------------|
|--------3------------------------------------------------------------------|
|-4--4-5---5------4-2---2--2-4-5-4-2-----------2--4-4-2-------p------------2|
|---------------------5---------------5-4-5--5----------4-5--5-4---2---2-5--|
|----------------------------------------------------------------5----------|
|---------------------------------------------------------------------------|
|                                                                           |
| Guitar 2                                                                  |
|---------------------------------------------------------------------------|
|------------h-p-p----------------------------------------------------------|
|------2-4-2--4-2-0------~------2-------------------------------------------|
|-5--5--------------4--2-4--4-5---5-4--2---2--2-4--5-5-4---2-(2)2-0/2-2--2-4|
|----------------------------------------5---------------5------------------|
|---------------------------------------------------------------------------|
|                                                                           |                     
| Guitar 3                                                                  |
|---------------------------------------------------------------------------|
|---------------------------------------------------------------------------|
|----------5-5----------777-777-----------555-555-777-777-9--9-9-7-9--9-9-9-|
|-555-555--5-5----7-----777-777--555-555--555-555-777-777-9--9-9-7-9--9-9-9-|
|-555-555--3-3----7-----555-555--555-555--333-333-555-555-7--7-7-5-7--7-7-7-|
|-333-333---------5--------------333-333------------------------------------|



 Guitar 1
|---------------------------------------------------------------------------|
|----------3----------------------------------------------------------------|
|---4--4-5---5--4-2---2--2-4-5-4--2----------2-4-4-2-------p----------------|
|-------------------5---------------5-4-5--5---------4-5--5-4---2--2--------|
|-------------------------------------------------------------5-------------|
|---------------------------------------------------------------------------|
|                                                                           |
| Guitar 2                                                                  |
|---------------------------------------------------------------------------|
|---------------------------------------------------------------------------|
|--------2-4-2--------~------2----------------------------------------------|
|---5--5--------5-4-2-4--4-5---5--4-2---2--2-4-5-5-4---2--2-0/2-2-----------|
|-------------------------------------5--------------5----------------------|
|---------------------------------------------------------------------------|
|                                                                           |                     
| Guitar 3                                                                  |
|---------------------------------------------------------------------------|
|---------------------------------------------------------------------------|
|----------5-5----------777-777-----------555-555-7---777-9--9-9-7-9--999---|
|-555-555--5-5----7-----777-777--555-555--555-555-7---777-9--9-9-7-9--999---|
|-555-555--3-3----7-----555-555--555-555--333-333-5---555-7--7-7-5-7--777---|
|-333-333---------5--------------333-333------------------------------------|


PLAY RIFF A AGAIN

  Guitar 1
|---------------------------------------------------------------------------|
|---------------------------------------------------------------------------|
|-----------------2----------2------2-4-5-4---------------------------------|
|----2--5-5-2-4-5---5------4---4------------5-4-----------------------------|
|--2-------------------2-5-------5------------------------------------------|
|---------------------------------------------------------------------------|
|                                                                           |
| Guitar 2                                                                  |
|---------------------------------------------------------------------------|
|---------------------------------------------------------------------------|
|-------4-4---2-4-5-4--------2------2-4-5-4---------------------------------|
|----2------5--------------4---4------------5-4-----------------------------|
|--2-------------------2-5-------5------------------------------------------|
|---------------------------------------------------------------------------|
|                                                                           |
| Guitar 3                                                                  |
|---------------------------------------------------------------------------|
|---------------------------------------------------------------------------|
|----9--9-9--9--7-7-7-9--9-7---7-7---------4-4-4----------------------------|
|--9-9--9-9--9--7-7-7-9--9-7---7-7-X-4-4-4-4-4-4----------------------------|
|--9-7--7-7--7--5-5-5-7--7-5---5-5-X-4-4-4-2-2-2----------------------------|
|--7-------------------------------X-2-2-2----------------------------------|



 Guitar 1
|---------------------------------------------------------------------------|
|---------------------------------------------------------------------------|
|-----------------2------2-4-2----------------------------------------------|
|----2--5-5-2-4-5---5--5-------5-4-5---5-5-5--------------------------------|
|---------------------------------------------------------------------------|
|---------------------------------------------------------------------------|
|                                                                           |
| Guitar 2                                                                  |
|---------------------------------------------------------------------------|
|---------------------------------------------------------------------------|
|-------4-4---2-4-5-4-------------------------------------------------------|
|----2------5----------2-4-5-4-2---2---2-2-2--------------------------------|
|--------------------------------5------------------------------------------|
|---------------------------------------------------------------------------|
|                                                                           |
| Guitar 3                                                                  |
|---------------------------------------------------------------------------|
|---------------------------------------------------------------------------|
|----9--9-9--9--7-7---9-9--4-4-/7-7-7--9---9-9-9-9--------------------------|
|----9--9-9--9--7-7---9-9--4-4-/7-7-7--9---9-9-9-9--------------------------|
|----7--7-7--7--5-5---7-7--2-2-/5-5-5--7---7-7-7-7--------------------------|
|---------------------------------------------------------------------------|



 Guitar 1
|---------------------------------------------------------------------------|
|--------3------------------------------------------------------------------|
|-4--4-5---5------4-2---2--2-4-5-4--2----------2-4-4-2-------p------------2-|
|---------------------5---------------5-4-5--5---------4-5--5-4---2-2---5---|
|---------------------------------------------------------------5-----------|
|---------------------------------------------------------------------------|
|                                                                           |
| Guitar 2                                                                  |
|---------------------------------------------------------------------------|
|------------h-p-p----------------------------------------------------------|
|------2-4-2--4-2-0------------2--------------------------------------------|
|-5-55--------------4-2-4--4-5---5--4-2---2--2-4-5-5-4---2-(2)2-0/2-2---2-4-|
|---------------------------------------5--------------5--------------------|
|---------------------------------------------------------------------------|
|                                                                           |
| Guitar 3                                                                  |
|---------------------------------------------------------------------------|
|---------------------------------------------------------------------------|
|----------5-5----------777-777-----------555-555-777-777-9--9---7-9--9-9-9-|
|-555-555--5-5----7--7--777-777--555-555--555-555-777-777-9--9---7-9--9-9-9-|
|-555-555--3-3----7--7--555-555--555-555--333-333-555-555-7--7---5-7--7-7-7-|
|-333-333---------5--5-----------333-333------------------------------------|



 Guitar 1
|---------------------------------------------------------------------------|
|--------3------------------------------------------------------------------|
|-4-44-5---5------4-2---2--2-4-5-4--2----------2-4-4-2-------p--------------|
|---------------------5---------------5-4-5--5---------4-5--5-4---2---2-----|
|---------------------------------------------------------------5-----------|
|---------------------------------------------------------------------------|
|                                                                           |
| Guitar 2                                                                  |
|---------------------------------------------------------------------------|
|------------h-p-p----------------------------------------------------------|
|------2-4-2--4-2-0------------2--------------------------------------------|
|-5-55--------------4-2-4--4-5---5--4-2---2--2-4-5-5-4---2----2-0/2--22-----|
|---------------------------------------5--------------5--------------------|
|---------------------------------------------------------------------------|
|                                                                           |                     
| Guitar 3                                                                  |
|---------------------------------------------------------------------------|
|---------------------------------------------------------------------------|
|----------5-5----------777-777-----------555-555-7---777-9--9-9-7-9--9-9-9-|
|-555-555--5-5----7-----777-777--555-555--555-555-7---777-9--9-9-7-9--9-9-9-|
|-555-555--3-3----7-----555-555--555-555--333-333-5---555-7--7-7-5-7--7-7-7-|
|-333-333---------5--------------333-333------------------------------------|
|                                                                           |
| Guitar 4                                                                  |
|---------------------------------------------------------------------------|
|---------------------------------------------------------------------------|
|----------5-5----------777-777-----------555-555-7---777-9--9-9-7-9--9-9-9-|
|-555-555--5-5----7-----777-777--555-555--555-555-7---777-9--9-9-7-9--9-9-9-|
|-555-555--3-3----7-----555-555--555-555--333-333-5---555-7--7-7-5-7--7-7-7-|
|-333-333---------5--------------333-333----------5---(5)-------------------|


                                                              

  Guitar 1
|---------------------------------------------------------------------------|
|---------------------------------------------------------------------------|
|------------------5-----(5)-------3-5-3------------------------------------|
|--2-----(2)-------5-----(5)-------3-5-3----------------5-------4-----------|
|--2-----(2)-------3-----(3)-------1-3-1----------------7-------6-----------|
|--0-----(0)--------------------------------------------8-------7-----------|
|                                                                           |
| Guitar 2                                                                  |
|---------------------------------------------------------------------------|
|---------------------------------------------------------------------------|
|-----------h---------------h-------------------h---------------------------|
|--5-------7-9-----7-------7-9-----5-7-5-------7-9------5-----5-4-----------|
|--7---------------9---------------7-9-7----------------7-----7-6-----------|
|----000-0-----0-0---000-0-----0-0--0-0--000-0------0-0---000-----000-0-----|
     ... .     . .   ... .     . .  . .  ... .      . .   ...     ... .


  Guitar 1                                                                  
|---------------------------------------------------------------------------|
|---------------------------------------------------------------------------|
|------------------5---------------3-5-3------------------------------------|
|--2-----(2)-------5---------------3-5-3----------------5-------4-----------|
|--2-----(2)-------3---------------1-3-1----------------7-------6-----------|
|--0-----(0)--------------------------------------------8-------7-----------|
|                                                                           |
| Guitar 2                                                                  |
|---------------------------------------------------------------------------|
|---------------------------------------------------------------------------|
|-----------h---------------h-------------------h---------------------------|
|--5-------7-9-----7-------7-9-----5-7-5-------7-9------5-----5-4---(4)-----|
|--7---------------9---------------7-9-7----------------7-----7-6---(6)-----|
|--0-000-0-----0-0---000-0-----0-0--0-0--000-0------0-0---000---------------|
   . ... .     . .   ... .     . .  . .  ... .      . .   ...           


  Guitar 1
|--------------------------------------------------------------------------|
|--------------------------------------------------------------------------|
|---------h---------------h-------------------------h----------------------|
|5-------4-5-----5-------4-5---------------8-------4-5-----10------9-------|
|7---------------7---------------7----9----7---------------7-------6-------| 
|0-000-0-----000---000-0-----000-6-00-8-00-6-000-0-----000-8-000-0-7-000-0-|
|  ... .     ...   ... .     ...   ..   ..   ... .     ...   ... .   ... . |     
|                                                                          |
| Guitar 2                                                                 |
|--------------------------------------------------------------------------|
|--------------------------------------------------------------------------|
|---------h---------------h-------------------------h----------------------|
|5-------7-9-----7-------7-9-----5----7----5-------7-9-----5-----5-4-------|
|7---------------9---------------7----9----7---------------7-----7-6-------|
|0-000-0-----0-0---000-0-----0-0---0----0----000-0-----0-0---000-----000-0-|
   ... .     . .   ... .     . .   .    .    ... .     . .   ...     ... .


  Guitar 1
|--------------------------------------------------------------------------|
|--------------------------------------------------------------------------|
|---------h---------------h-------------------------h----------------------|
|5-------4-5-------------4-5-----8----10---8-------4-5-----10------9-------|
|7---------------7---------------7----9----7---------------7-------6-------|
|0-000-0-----000-8-000-0-----000-6-00-8-00-6-000-0-----000-8-000-0-7-000-0-|
|  ... .     ...   ... .     ...   ..   ..   ... .     ...   ... .   ... . |     |
|                                                                          |
| Guitar 2                                                                 |
|--------------------------------------------------------------------------|
|--------------------------------------------------------------------------|
|---------h---------------h-------------------------h----------------------|
|5-------7-9-----7-------7-9-----5----7----5-------7-9-----5-----5-4--(4)--|
|7---------------9---------------7----9----7---------------7-----7-6--(6)--|
|--000-0-----0-0---000-0-----0-0----0----0---000-0-----0-0---000-----------|
   ... .     . .   ... .     . .    .    .   ... .     . .   ...            

  Guitar 1 *string noise or feedback occuring during playing!
|------------------------|
|---*----(*)----(*)------|   
|:----------------------:|
|:----------------------:|
|--5-4-5-2----4-5-4-2----|
|--3-2-3-0----2-3-2-0----|
|  . . . .    . . . .    |
|                        |
| Guitar 2               |
|------------------------|
|------------------------|
|:----------------------:|
|:----------------------:|
|--5-----2--------4-2----|
|--3-2-3-0----2-3-2-0----|
  spm. .spm   . .spmspm



Play 2Times   *string noise or feedback occuring during playing!
|------------------------|
|--*----(*)-----(*)------| 
|------------------------|
|-3---3--2---2-5---------|
|-5-0-5--5-0-5-5-0-------|
|------------------------|
|   .      .     .       |
|                        |
| Guitar 2               |
|------------------------|
|------------------------|
|------------------------|
|-7---7--5---5-8---------|
|-5-0-5--5-0-5-5-0-------|
|------------------------|
    .      .     .  


  Guitar 1
|------------------------|
|------------------------|   
|:----------------------:|
|:----------------------:|
|--5-4-5-2----4-5-4-2----|
|--3-2-3-0----2-3-2-0----|
|  . . . .    . . . .    |
|                        |
| Guitar 2               |
|------------------------|
|------------------------|
|:----------------------:|
|:----------------------:|
|--5-----2--------4-2----|
|--3-2-3-0----2-3-2-0----|
  spm. .spm   . .spmspm



Play 3Times
|------------------------|
|------------------------| 
|------------------------|
|-3---3--2---2-5---------|
|-5-0-5--5-0-5-5-0-------|
|------------------------|
|   .      .     .       |
|                        |
| Guitar 2               |
|------------------------|
|------------------------|
|------------------------|
|-7---7--5---5-8---------|
|-5-0-5--5-0-5-5-0-------|
|------------------------|
    .      .     .  



|------------------------|
|------------------------|
|------------------------|
|--8-7-5-7-5-------------|
|------------8-7---------|
|----------------8-------|
|                        |
|------------------------|
|------------------------|
|--7-5---5---------------|
|------8---8-7-5---------|
|----------------8-------|
|------------------------|



Play 3Times  *string noise or feedback occuring during playing!
|------------------------|
|-*----(*)----(*)--------| 
|------------------------|
|-3---3--2---2-5---------|
|-5-0-5--5-0-5-5-0-------|
|------------------------|
|   .      .     .       |
|                        |
| Guitar 2               |
|------------------------|
|------------------------|
|------------------------|
|-7---7--5---5-8---------|
|-5-0-5--5-0-5-5-0-------|
|------------------------|
    .      .     .  



|------------------------|
|------------------------|
|------------------------|
|-9-9-9-9-2-2-2-2--------|
|-7-7-7-7-2-2-2-2--------|
|-0-0-0-0-0-0-0-0--------|
| . . . . . . . .        |
|------------------------|
|------------------------|
|------------------------|
|-9-9-9-9-2-2-2-2--------|
|-7-7-7-7-2-2-2-2--------|
|-0-0-0-0-0-0-0-0--------|
  . . . . . . . .


  Guitar 1
|---------------------------------------------------------------------------|
|---------------------------------------------------------------------------|
|-9------9-----------------99--10------10------9----------------------------|
|----10-----10--12--9--12----------12------12-----101010--12----------------|
|---------------------------------------------------------------------------|
|---------------------------------------------------------------------------|
|                                                                           |
| Guitar 2                                                                  |
|---------------------------------------------------------------------------|
|------------------------------(6)-(6)-(6)-(6)------------------------------|
|-5---5---5---5-----------------7---7---7---7--------------4----------------|
|-5---5---5---5--5---5---5---5--7---7---7---7--7-----------4----------------|
|-3---3---3---3--5---5---5---5--5---5---5---5--7-----------2----------------|
|----------------3---3---3---3-----------------5----------------------------|



  Guitar 1
|---------------------------------------------------------------------------|
|---------------------------------------------------------------------------|
|-9------9------------------------------------------------------------------|
|----10-----10--12--9-9---99--10--9-----------------------------------------|
|------------------------------------12-10-12-------------------------------|
|---------------------------------------------------------------------------|
|                                                                           |
| Guitar 2                                                                  |
|---------------------------------------------------------------------------|
|---------------------------------------------------------------------------|
|--5---5---5---5------------------------------------------------------------|
|--5---5---5---5-5---5---5---5-3--3---5--5--X7------------------------------|
|--3---3---3---3-5---5---5---5-3--3---5--5--X7------------------------------|
|----------------3---3---3---3-1--1---3--3--X5------------------------------|



  Guitar 1
|---------------------------------------------------------------------------|
|---------------------------------------------------------------------------|
|-9------9-----------------99--10------10------9----------------------------|
|----10-----10--12--9--12----------12------12-----101010--12----------------|
|---------------------------------------------------------------------------|
|---------------------------------------------------------------------------|
|                                                                           |
| Guitar 2                                                                  |
|--------------------------------------------*------------------------------|
|---------------------------------------------------------------------------|
|-5---5---5---5-----------------7---7---7---77-------------4----------------|
|-5---5---5---5--5---5---5---5--7---7---7---77-7-----------4----------------|
|-3---3---3---3--5---5---5---5--5---5---5---55-7-----------2----------------|
|----------------3---3---3---3---------------5-5----------------------------|
*(While not actually played this chord is heard in the transition)
  This is overkill on the transcription, but it notes
  their playing technique as which so many of you are trying to 
  duplicate, so we thought we should add it in here.)


  Guitar 1
|---------------------------------------------------------------------------|
|---------------------------------------------------------------------------|
|-9------9------------------------------------------------------------------|
|----10-----10--12--9-9---99--10--9-----------------------------------------|
|------------------------------------12-10-12-------------------------------|
|---------------------------------------------------------------------------|
|                                                                           |
| Guitar 2                                                                  |
|---------------------------------------------------------------------------|
|---------------------------------------------------------------------------|
|--5---5---5---5------------------------------------------------------------|
|--5---5---5---5-5---5---5---5-3--3---5--5--7-7-7-7-------------------------|
|--3---3---3---3-5---5---5---5-3--3---5--5--7-7-7-7-------------------------|
|----------------3---3---3---3-1--1---3--3--5-5-5-5-------------------------|



  Guitar 1
|---------------------------------------------------------------------------|
|---------------------------------------------------------------------------|
|---------------------------------------------------------------------------|
|--3"--------------5"------6"------3"--------------5"------6"---------------|
|---------------------------------------------------------------------------|
|---------------------------------------------------------------------------|
|                                                                           |
| Guitar 2                                                                  |
|---------------------------------------------------------------------------|
|---------------------------------------------------------------------------|
|---------------------------------------------------------------------------|
|------------3---------------3---------------3---------------3--------------|
|--3-3---4-------4-3-3---4-------4-3-3---4-------4-3-3---4-------4----------|
|--1---1---1---1---1---1---1---1---1---1---1---1---1---1---1---1------------|
       .   .   .       .   .   .       .   .   .       .   .   .    


  Guitar 1
|---------------------------------------------------------------------------|
|---------------------------------------------------------------------------|
|--2"--------------4"------5"------2"--------------4"------5"---------------|
|---------------------------------------------------------------------------|
|---------------------------------------------------------------------------|
|---------------------------------------------------------------------------|
|                                                                           |
| Guitar 2                                                                  |
|---------------------------------------------------------------------------|
|---------------------------------------------------------------------------|
|---------------------------------------------------------------------------|
|------------7---------------7---------------7---------------7--------------|
|--7-7---8-------8-7-7---8-------8-7-7---8-------8-7-7---8-------8----------|
|--5---5---5---5---5---5---5---5---5---5---5---5---5---5---5---5------------|
       .   .   .       .   .   .       .   .   .       .   .   .    


  Guitar 1
|---------------------------------------------------------------------------|
|---------------------------------------------------------------------------|
|---------------------------------------------------------------------------|
|--3"-------5"-----6"-----3"------5"----6"----------------------------------|
|---------------------------------------------------------------------------|
|---------------------------------------------------------------------------|
|                                                                           |
| Guitar 2                                                                  |
|---------------------------------------------------------------------------|
|---------------------------------------------------------------------------|
|-------------------------5"------4"----5"----------------------------------|
|--3"-------5"-----6"-------------------------------------------------------|
|---------------------------------------------------------------------------|
|---------------------------------------------------------------------------|



  Guitar 1
|---------------------------------------------------------------------------|
|---------------------------------------------------------------------------|
|--2"-------4"-----5"-----2"------4"----5-----------------------------------|
|---------------------------------------------------------------------------|
|---------------------------------------------------------------------------|
|---------------------------------------------------------------------------|
|                                                                           |
| Guitar 2                                                                  |
|---------------------------------------------------------------------------|
|---------------------------------------------------------------------------|
|--5"-------7"-----9"-----9"------8"----9-----------------------------------|
|---------------------------------------------------------------------------|
|---------------------------------------------------------------------------|
|---------------------------------------------------------------------------|



  Guitar 1                                 
|---------------------------------------------------------------------------|
|---------------------------------------------------------------------------|
|---------------------------------------------------------------------------|
|-9-----5-----5-----5-----------------7-----------9------9-----9-----9------|
|-7-----7-----7-----7-----9-----9-----9-----9----10-----10----10----10------|
|---000---0-0---000---0-0---000---0-0---000---0-0---000----0-0---000---0-0--|
|   ...   . .   ...   . .   ...   . .   ...   . .   ...    . .   ...   . .  |
|                                                                           |
| Guitar 2                                                                  |
|---------------------------------------------------------------------------|
|---------------------------------------------------------------------------|
|---------------------------------------------------------------------------|
|-9-----5-----5-----5-----7-----7-----7-----7-----9------9-----------9------|
|-10----7-----7-----7-----9-----9-----9-----9----10-----10----10----10------|
|---000---0-0---000---0-0---000---0-0---000---0-0---000----0-0---000---0-0--|
    ...   . .   ...   . .   ...   . .   ...   . .   ...    . .   ...   . .


  Guitar 1
|---------------------------------------------------------------------------|
|---------------------------------------------------------------------------|
|-5---------7----9----------------------------------------------------------|
|-5----5----7----9----------------------------------------------------------|
|-3----5----5----7----------------------------------------------------------|
|------3--------------------------------------------------------------------|



  Guitar 1    
|---------------------------------------------------------------------------|
|---------------------------------------------------------------------------|
|--------------------------2---------------------2-4--------------------24--|
|--5-----2-------------245-------4-------------45--------5-------------5----|
|---------------------------------------------------------------------------|
|---------------------------------------------------------------------------|
|                                                                           |
| Guitar 2                                                                  |
|---------------------------------------------------------------------------|
|---------------------------------------------------------------------------|
|--------------------------2---------------------2-4--------------------24--|
|--5-----2-------------245-------4-------------45--------5-------------5----|
|---------------------------------------------------------------------------|
|---------------------------------------------------------------------------|
|                                                                           |
| Guitar 3                                                                  |
|---------------------------------------------------------------------------|
|---------------------------------------------------------------------------|
|---------------------------------------------------------------------------|
|--5-----5-----5-----5-----7-----7-----7-----7-----9------9-----9-----9-----|
|--7-----7-----7-----7-----9-----9-----9-----9----10-----10----10----10-----|
|----000---0-0---000---0-0---000---0-0---000---0-0---000----0-0---000---0-0-|
|    ...   . .   ...   . .   ...   . .   ...   . .   ...    . .   ...   . . | 
|                                                                           |
| Guitar 4                                                                  |
|---------------------------------------------------------------------------|
|---------------------------------------------------------------------------|
|---------------------------------------------------------------------------|
|--5-----5-----5-----5-----7-----7-----7-----7-----9-----9-----9-----9------|
|--7-----7-----7-----7-----9-----9-----9-----9----10----10----10----10------|
|----000---0-0---000---0-0---0-0---0-0---000---0-0---0-0---0-0---0-0---0-0--|
     ...   . .   ...   . .   . .   . .   ...   . .   . .   . .   . .   . .   


  Guitar 1
|---------------------------------------------------------------------------|
|-5-3---3-------------------------------------------------------------------|
|-----5---5-4-2-------------------------------------------------------------|
|---------------5-4-5-------------------------------------------------------|
|---------------------------------------------------------------------------|
|---------------------------------------------------------------------------|
|                                                                           |
| Guitar 2                                                                  |
|---------------------------------------------------------------------------|
|---------------------------------------------------------------------------|
|-5-4-2-4-2-----------------------------------------------------------------|
|-----------5-4-2---2-------------------------------------------------------|
|-----------------5---------------------------------------------------------|
|---------------------------------------------------------------------------|
|                                                                           |
| Guitar 3                                                                  |
|---------------------------------------------------------------------------|
|---------------------------------------------------------------------------|
|-5-----------2-2-2-4-------------------------------------------------------|
|-5-----5-----4-4-4-5-\-----------------------------------------------------|
|-3-----5-----5-5-5-7-\-----------------------------------------------------|
|-------3-------------------------------------------------------------------|
|                                                                           |
| Guitar 4                                                                  |
|---------------------------------------------------------------------------|
|---------------------------------------------------------------------------|
|-5-----------7-----9-------------------------------------------------------|
|-5-----5-----7-----9-------------------------------------------------------|
|-3-----5-----5-----7-------------------------------------------------------|
|-------3-------------------------------------------------------------------|



  Guitar 1
|---------------------------------------------------------------------------|
|---------------------------------------------------------------------------|
|--------------------------2---------------------2-4--------------------24--|
|--5-----2-------------245-------4-------------45--------5-------------5----|
|---------------------------------------------------------------------------|
|---------------------------------------------------------------------------|
|                                                                           |
| Guitar 2                                                                  |
|---------------------------------------------------------------------------|
|---------------------------------------------------------------------------|
|--------------------------2---------------------2-4--------------------24--|
|--5-----2-------------245-------4-------------45--------5-------------5----|
|---------------------------------------------------------------------------|
|---------------------------------------------------------------------------|
|                                                                           |
| Guitar 3                                                                  |
|---------------------------------------------------------------------------|
|---------------------------------------------------------------------------|
|---------------------------------------------------------------------------|
|--5-----5-----5-----5-----7-----7-----7-----7-----9-----9-----9-----9------|
|--7-----7-----7-----7-----9-----9-----9-----9----10----10----10----10------|
|----000---0-0---000---0-0---000---0-0---000---0-0---000---0-0---000---0-0--|
|    ...   . .   ...   . .   ...   . .   ...   . .   ...   . .   ...   . .  |
|                                                                           |
| Guitar 4                                                                  |
|---------------------------------------------------------------------------|
|---------------------------------------------------------------------------|
|---------------------------------------------------------------------------|
|--5-----5-----5-----5-----7-----7-----7-----7-----9-----9-----9-----9------|
|--7-----7-----7-----7-----9-----9-----9-----9----10----10----10----10------|
|----0-0---0-0---0-0---0-0---000---0-0---0-0---0-0---0-0---0-0---0-0---0-0--|
     . .   . .   . .   . .   ...   . .   . .   . .   . .   . .   . .   . .   


  Guitar 1
|---------------------------------------------------------------------------|
|-5-3---3-------------------------------------------------------------------|
|-----5---5-4-2-------------------------------------------------------------|
|---------------5-4-5-------------------------------------------------------|
|---------------------------------------------------------------------------|
|---------------------------------------------------------------------------|
|                                                                           |
| Guitar 2                                                                  |
|---------------------------------------------------------------------------|
|---------------------------------------------------------------------------|
|-5-4-2-4-2-----------------------------------------------------------------|
|-----------5-4-2---2-------------------------------------------------------|
|-----------------5---------------------------------------------------------|
|---------------------------------------------------------------------------|
|                                                                           |
| Guitar 3                                                                  |
|---------------------------------------------------------------------------|
|---------------------------------------------------------------------------|
|-5-----------2-2-2-4-------------------------------------------------------|
|-5-----5-----4-4-4-5-\-----------------------------------------------------|
|-3-----5-----5-5-5-7-\-----------------------------------------------------|
|-------3-------------------------------------------------------------------|
|                                                                           |
| Guitar 4                                                                  |
|---------------------------------------------------------------------------|
|---------------------------------------------------------------------------|
|-5-----------7-----9-------------------------------------------------------|
|-5-----5-----7-----9-------------------------------------------------------|
|-3-----5-----5-----7-------------------------------------------------------|
|-------3-------------------------------------------------------------------|



  Guitar 1
|---------------------------------------------------------------------------|
|---------------------------------------------------------------------------|
|-----------------2----------2------2-4-5-4---------------------------------|
|----2--5-5-2-4-5---5------4---4------------5-4-----------------------------|
|--2-------------------2-5-------5------------------------------------------|
|---------------------------------------------------------------------------|
|                                                                           |
| Guitar 2                                                                  |
|---------------------------------------------------------------------------|
|---------------------------------------------------------------------------|
|-------4-4---2-4-5-4--------2------2-4-5-4---------------------------------|
|----2------5--------------4---4------------5-4-----------------------------|
|--2-------------------2-5-------5------------------------------------------|
|---------------------------------------------------------------------------|
|                                                                           |                     |
| Guitar 3                                                                  |
|---------------------------------------------------------------------------|
|---------------------------------------------------------------------------|
|----9--9-9--9--7-7-7-9--9-7---7-7---------4-4-4----------------------------|
|--9-9--9-9--9--7-7-7-9--9-7---7-7-X-4-4-4-4-4-4----------------------------|
|--9-7--7-7--7--5-5-5-7--7-5---5-5-X-4-4-4-2-2-2----------------------------|
|--7-------------------------------X-2-2-2-----------------------





Comments


Popular In Flames tabs & chords
Dead God In Me Bass Tabs
Episode 666 1 Bass Tabs
Suburban Me Bass Tabs
Alias Intro Tabs
Another Day In Quicksand 3 Tabs
Cloud Connected 4 Tabs
Dawn Of A New Day Tabs
Deliver Us Tabs
In Search For I Tabs
Take This Life 3 Tabs


Song lyrics



↑ Back to top | Tablatures and chords are parodies/interpretations of the original songs. You may use it for private study, scholarship, research or language learning purposes only
© 2014 AZChords.com Contact us | Privacy policy | DMCA | Add/correct tabs | Request tabs | Top 50 tabs