>
 >
Goliaths Disarm Their Davids

Goliaths Disarm Their Davids Bass Tabs

In Flames - Goliaths Disarm Their Davids chords, tabs, tablatures, lyrics

Guitar lessons | Add/correct | Request | Top 50 tabs Artists:  A B C D E F G H I J K L M N O P Q R S T U V W X Y Z 0-9

Goliaths Disarm Their Davids Bass Tabs – In Flames

CD, Sheet music, Poster

Do you like Goliaths Disarm Their Davids? Share with your friends now
Bass TabsTabs
tune down

D#||------|------|------|-------------------|-------------------|
A#||------|------|------|-------------------|-------------------|
F ||------|------|------|----------------5--|-------------------|
C ||------|------|------|-------------------|--0----------------|


                                                                 
---------------------|--------------------|---------------------|
---------------------|--------------------|---------------------|
--0------------0--0--|--3--------------3--|--5------------------|
---------------------|--------------------|-----------3----5----|


                                                               
-------------------|---------------------|--------------------|
-------------------|---------------------|--------------------|
-------------------|--0------------0--0--|--3--------------3--|
--0----------------|---------------------|--------------------|


                                                                
---------------------|-------------------|---------------------|
---------------------|-------------------|---------------------|
--5------------------|-------------------|--0------------0--0--|
-----------3----5----|--0----------------|---------------------|


                                                               
--------------------|---------------------|-------------------|
--------------------|---------------------|-------------------|
--3--------------3--|--5------------------|-------------------|
--------------------|-----------3----5----|--0----------------|


                                                                 
---------------------|--------------------|---------------------|
---------------------|--------------------|---------------------|
--0------------0--0--|--3--------------3--|--5------------------|
---------------------|--------------------|-----------3----5----|


                                                                     
----------------------|----------------------|----------------------|
----------------------|----------------------|----------------------|
----------------------|--0--------0---2---3--|--3------3--3------3--|
--0------0--0------0--|----------------------|----------------------|


                                                                     
----------------------|----------------------|----------------------|
----------------------|----------------------|----------------------|
--5-------------------|----------------------|--0--------0---2---3--|
-----------7--5--5----|--0------0--0------0--|----------------------|


                                                                       
----------------------|----------------------|------------------------|
----------------------|----------------------|------------------------|
--3------3--3------3--|--5-------------------|--0--0----0----0--0--0--|
----------------------|-----------3---5---7--|------------------------|


                                                                            
------------------------|-------------------------|------------------------|
------------------------|-------------------------|------------------------|
--3--3----3----3--3--3--|-----------3----3--3-----|----------5----5--5--5--|
------------------------|--1--1--1-------------3--|----3--3----------------|


                                                                            
------------------------|------------------------|-------------------------|
------------------------|------------------------|-------------------------|
--0--0----0----0--0--0--|--3--3----3----3--3--3--|-----------3----3--3-----|
------------------------|------------------------|--1--1--1-------------3--|


                                                                         
------------------------|-----------------------|-----------------------|
------------------------|-----------------------|-----------------------|
------------------------|--0----0----0----3--0--|--3----3----3----3-----|
----3--3--1----1--1--1--|-----------------------|--------------------3--|


                                                                      
----------------------|----------------------|-----------------------|
----------------------|----------------------|-----------------------|
----------------------|----------------------|--0----0----0----3--0--|
--3----3----3----3----|--1----1----1----1----|-----------------------|


                                                                      
-----------------------|----------------------|----------------------|
-----------------------|----------------------|----------------------|
--3----3----3----3-----|----------------------|----------------------|
--------------------3--|--1----1----1----1----|--0----0----0----0----|


                                                                       
-----------------------|-----------------------|----------------------|
-----------------------|-----------------------|----------------------|
--0----0----0----3--0--|--3----3----3----3-----|----------------------|
-----------------------|--------------------3--|--3----3----3----3----|


                                                                       
----------------------|-----------------------|-----------------------|
----------------------|-----------------------|-----------------------|
----------------------|--0----0----0----3--0--|--3----3----3----3-----|
--1----1----1----1----|-----------------------|--------------------3--|


                                                                       
----------------------|----------------------|------------------------|
----------------------|----------------------|------------------------|
----------------------|----------------------|--0--0----0----0--0--0--|
--1----1----1----1----|--0----0----0----0----|------------------------|


                                                                            
------------------------|-------------------------|------------------------|
------------------------|-------------------------|------------------------|
--3--3----3----3--3--3--|-----------3----3--3-----|----------5----5--5--5--|
------------------------|--1--1--1-------------3--|----3--3----------------|


                                                                            
------------------------|------------------------|-------------------------|
------------------------|------------------------|-------------------------|
--0--0----0----0--0--0--|--3--3----3----3--3--3--|-----------3----3--3-----|
------------------------|------------------------|--1--1--1-------------3--|


                                                                  
------------------------|--------------------|-------------------|
------------------------|--------------------|-------------------|
------------------------|--0--0--------------|----------------5--|
----3--3--1----1--1--1--|--------------------|-------------------|


                                                                          
------------------------|------------------------|-----------------------|
------------------------|------------------------|-----------------------|
----5--5----5--5--5--7--|----7--7--7----7--7--0--|----0--0----0--0----0--|
------------------------|------------------------|-----------------------|


                                                                      
----------------------|----------------------|-----------------------|
----------------------|----------------------|-----------------------|
----0----2----3----5--|------5----5--5-------|----------5----3----0--|
----------------------|-------------------1--|----1--1---------------|


                                                                          
-----------------------|------------------------|------------------------|
-----------------------|------------------------|------------------------|
----0--0----0--0----0--|----0--0----0--0--0--5--|----5--5----5--5--5--7--|
-----------------------|------------------------|------------------------|


                                                                          
------------------------|-----------------------|------------------------|
------------------------|-----------------------|------------------------|
----7--7--7----7--7--0--|----0--0----0--0----0--|----0----0--0--2--3--5--|
------------------------|-----------------------|------------------------|


                                                                      
----------------------|----------------------|-----------------------|
----------------------|----------------------|-----------------------|
------5----5--5-------|----------5----3------|--0----0----0----3--0--|
-------------------1--|----1--1--------------|-----------------------|


                                                                       
-----------------------|-----------------------|----------------------|
-----------------------|-----------------------|----------------------|
--3----3----3----3-----|-----------------------|----------------------|
--------------------3--|--3----3----3----3--0--|--1----1----1----1----|


                                                                       
-----------------------|-----------------------|----------------------|
-----------------------|-----------------------|----------------------|
--0----0----0----3--0--|--3----3----3----3-----|----------------------|
-----------------------|--------------------3--|--1----1----1----1----|


                                                                       
----------------------|-----------------------|-----------------------|
----------------------|-----------------------|-----------------------|
----------------------|--0----0----0----3--0--|--3----3----3----3-----|
--0----0----0----0----|-----------------------|--------------------3--|


                                                                       
-----------------------|----------------------|-----------------------|
-----------------------|----------------------|-----------------------|
-----------------------|----------------------|--0----0----0----3--0--|
--3----3----3----3--0--|--1----1----1----1----|-----------------------|


                                                                      
-----------------------|----------------------|----------------------|
-----------------------|----------------------|----------------------|
--3----3----3----3-----|----------------------|----------------------|
--------------------3--|--1----1----1----1----|--0----0----0----0----|


                                                                           
------------------------|------------------------|------------------------|
------------------------|------------------------|------------------------|
--0--0--0----0--0----0--|----0--0----0--0--0--5--|----5--5----5--5--5--7--|
------------------------|------------------------|------------------------|


                                                                        
------------------------|-----------------------|----------------------|
------------------------|-----------------------|----------------------|
----7--7--7----7--7--0--|----0--0----0--0----0--|----0----2----3----5--|
------------------------|-----------------------|----------------------|


                                                                       
----------------------|-----------------------|-----------------------|
----------------------|-----------------------|-----------------------|
------5----5--5-------|----------5----3----0--|----0--0----0--0----0--|
-------------------1--|----1--1---------------|-----------------------|


                                                                           
------------------------|------------------------|------------------------|
------------------------|------------------------|------------------------|
----0--0----0--0--0--5--|----5--5----5--5--5--7--|----7--7--7----7--7--0--|
------------------------|------------------------|------------------------|


                                                                        
-----------------------|------------------------|----------------------|
-----------------------|------------------------|----------------------|
----0--0----0--0----0--|----0----0--0--2--3--5--|------5----5--5-------|
-----------------------|------------------------|-------------------1--|


                                                                          
-----------------------|------------------------|------------------------|
-----------------------|------------------------|------------------------|
----------5----3-------|------------------------|------------------------|
----1--1------------1--|----1--1--3----3--3--5--|----5--5--5----5--5--5--|


                                                                           
-------------------------|-----------------------|------------------------|
-------------------------|-----------------------|------------------------|
-------------------------|-----------------------|------------------------|
--1--1--1--3----3--3--5--|----5--5------5--5--1--|----1--1--3----3--3--5--|


                                                                            
------------------------|-------------------------|------------------------|
------------------------|-------------------------|------------------------|
------------------------|-------------------------|------------------------|
----5--5--5----5--5--5--|--1--1--1--3----3--3--5--|----5--5----5--5--5--1--|


                                                                            
------------------------|------------------------|-------------------------|
------------------------|------------------------|-------------------------|
------------------------|------------------------|-------------------------|
----1--1--3----3--3--5--|----5--5--5----5--5--5--|--1--1--1--3----3--3--5--|


                                                                          
-----------------------|------------------------|------------------------|
-----------------------|------------------------|------------------------|
-----------------------|------------------------|------------------------|
----5--5------5--5--1--|----1--1--3----3--3--5--|----5--5--5----5--5--5--|


                                                                             
-------------------------|------------------------|-------------------------|
-------------------------|------------------------|-------------------------|
-------------------------|------------------------|-------------------------|
--1--1--1--3----3--3--5--|----5--5----5--5--5--5--|--5--5--5----5--5--5--5--|


                                                                     
------------------|------------------------|------------------------|
------------------|------------------------|------------------------|
------------------|--0--0----0----0--0--0--|--3--3----3----3--3--3--|
------------------|------------------------|------------------------|


                                                                            
-------------------------|------------------------|------------------------|
-------------------------|------------------------|------------------------|
-----------3----3--3-----|----------5----5--5--5--|--0--0----0----0--0--0--|
--1--1--1-------------3--|----3--3----------------|------------------------|


                                                                            
------------------------|-------------------------|------------------------|
------------------------|-------------------------|------------------------|
--3--3----3----3--3--3--|-----------3----3--3-----|------------------------|
------------------------|--1--1--1-------------3--|----3--3--1----1--1--1--|


                                                                       
-----------------------|-----------------------|----------------------|
-----------------------|-----------------------|----------------------|
--0----0----0----3--0--|--3----3----3----3-----|----------------------|
-----------------------|--------------------3--|--3----3----3----3----|


                                                                       
----------------------|-----------------------|-----------------------|
----------------------|-----------------------|-----------------------|
----------------------|--0----0----0----3--0--|--3----3----3----3-----|
--1----1----1----1----|-----------------------|--------------------3--|


                                                                       
----------------------|----------------------|------------------------|
----------------------|----------------------|------------------------|
----------------------|----------------------|--0--0----0----0--0--0--|
--1----1----1----1----|--0----0----0----0----|------------------------|


                                                                            
------------------------|-------------------------|------------------------|
------------------------|-------------------------|------------------------|
--3--3----3----3--3--3--|-----------3----3--3-----|----------5----5--5--5--|
------------------------|--1--1--1-------------3--|----3--3----------------|


                                                                            
------------------------|------------------------|-------------------------|
------------------------|------------------------|-------------------------|
--0--0----0----0--0--0--|--3--3----3----3--3--3--|-----------3----3--3-----|
------------------------|------------------------|--1--1--1-------------3--|


                                                                           
------------------------|------------------------|------------------------|
------------------------|------------------------|------------------------|
------------------------|--2--2----2----2--2--2--|--5--5----5----5--5--5--|
----3--3--1----1--1--1--|------------------------|------------------------|


                                                                            
-------------------------|------------------------|------------------------|
-------------------------|------------------------|------------------------|
-----------5----5--5-----|----------7----7--7--7--|--2--2----2----2--2--2--|
--3--3--3-------------5--|----5--5----------------|------------------------|


                                                                            
------------------------|-------------------------|------------------------|
------------------------|-------------------------|------------------------|
--5--5----5----5--5--5--|-----------5----5--5-----|------------------------|
------------------------|--3--3--3-------------5--|----5--5--3----3--3--3--|


                                                                           
------------------------|------------------------|------------------------|
------------------------|------------------------|------------------------|
--0--0--0----0--0----0--|----0--0----0--0--0--5--|----5--5----5--5--5--7--|
------------------------|------------------------|------------------------|


                                                                        
------------------------|-----------------------|----------------------|
------------------------|-----------------------|----------------------|
----7--7--7----7--7--0--|----0--0----0--0----0--|----0----2----3----5--|
------------------------|-----------------------|----------------------|


                                                                       
----------------------|-----------------------|-----------------------|
----------------------|-----------------------|-----------------------|
------5----5--5-------|----------5----3----0--|----0--0----0--0----0--|
-------------------1--|----1--1---------------|-----------------------|


                                                                           
------------------------|------------------------|------------------------|
------------------------|------------------------|------------------------|
----0--0----0--0--0--5--|----5--5----5--5--5--7--|----7--7--7----7--7--0--|
------------------------|------------------------|------------------------|


                                                                      
-----------------------|----------------------|----------------------|
-----------------------|----------------------|----------------------|
----0--0----0--0----0--|----0----2----3----5--|------5----5--5-------|
-----------------------|----------------------|-------------------1--|


                                                                          
-----------------------|-----------------------|-------------------------|
-----------------------|-----------------------|-------------------------|
----------5----3-------|----------5----3----3--|----2--0-----------2--0--|
----1--1------------1--|----1--1---------------|----------3--0--3--------|


                    
------------------||
------------------||
------------------||
------------------||





Comments


Popular In Flames tabs & chords
Alias Bass Tabs
Bottled Bass Tabs
Colony 1 Bass Tabs
Gyroscope Bass Tabs
My Sweet Shadow Bass Tabs
Take This Life Bass Tabs
Cloud Connected Drum Tabs
Bottled Tabs
Jotun Tabs
Scream 1 Tabs


Song lyrics



↑ Back to top | Tablatures and chords are parodies/interpretations of the original songs. You may use it for private study, scholarship, research or language learning purposes only
© 2014 AZChords.com Contact us | Privacy policy | DMCA | Add/correct tabs | Request tabs | Top 50 tabs